Log in

One click and you are in

Login with Facebook Login with Google

Why sign up and log in

Guitar Tabs Explorer
B. B. King tabs for The thrill is gone

Guitar tabs

the thrill is gone
bb king
This is one of bb kings classsics. The solos and even the intro vary from his different
preformances or recordings but this gives you a good idea of how he plays and the blues.
In the song he doesnt play in between the solos, he just sings.
play it clean.
v= vibrato
b= bend
h= hammer on
intro
-------------10--------------------------------------------------------------------------
---12v--12----------12-----10--7---3---5--3--0--0--0-------3-slide--7--------------------
------------------------------------------------------------3----------------------------
-----------------------------------------------------------------------------------------
-----------------------------------------------------------------------------------------
-----------------------------------------------------------------------------------------

-----12--10---------------10---12--12---14--12--12--10-------10h12--10-------------------
--------------12--12--12-----------------------------------12--12--------------12--------
-----------------------------------------------------------------------------------------
-----------------------------------------------------------------------------------------
-----------------------------------------------------------------------------------------
-----------------------------------------------------------------------------------------


---------10h12---12--10-------------12--14---------10--12----------10-----------10-------
------12---------------------12v--12--------------12----------12---------12--------------
-----------------------------------------------------------------------------------------
-----------------------------------------------------------------------------------------
-----------------------------------------------------------------------------------------
-----------------------------------------------------------------------------------------

solo 1
--------------------------------10--10-----------------10--12--14--12--10--12--14--------
----7slide12-------12--12--------------12--12---12---------------------------------------
-----------------------------------------------------------------------------------------
-----------------------------------------------------------------------------------------
-----------------------------------------------------------------------------------------
-----------------------------------------------------------------------------------------

-------10--12--10--12---------------b14----12--10----------------------------------------
---12--------------------12---------------------------12--10--7--5--3--5--0--------------
-----------------------------------------------------------------------------------------
-----------------------------------------------------------------------------------------
-----------------------------------------------------------------------------------------
-----------------------------------------------------------------------------------------


---------------------------------------------10--12----------10--------------------------
-----7--10----12--10--12--7--7--10--12-------------12------------------------------------
-----------------------------------------------------------------------------------------
-----------------------------------------------------------------------------------------
-----------------------------------------------------------------------------------------
-----------------------------------------------------------------------------------------


solo 2
--------------------------10-10-------------10-12-14----10--12-------------14--10---12---------
------7slide12v---12--12--------12-12--12--------------------------12--12------------------12--
-----------------------------------------------------------------------------------------------
-----------------------------------------------------------------------------------------------
-----------------------------------------------------------------------------------------------
-----------------------------------------------------------------------------------------------

-----10--12---14-----12--12---14---10--12------------10--12-14----12--10---------------------
12-----------------------------------------------12------------------------------12--10--12--
---------------------------------------------------------------------------------------------
---------------------------------------------------------------------------------------------
---------------------------------------------------------------------------------------------
---------------------------------------------------------------------------------------------

---------------------------------------------10--10--9h10--9--------10--------------10-------
---7--12--10---7--5--3---7--10--12--12---------------------12--12-----10--7--10--12---12-----
---------------------------------------------------------------------------------------------
---------------------------------------------------------------------------------------------
---------------------------------------------------------------------------------------------
---------------------------------------------------------------------------------------------

The song just fades and the music just keeps going. If you have any questions my email is
mash8065@hotmail.com

Other versions of The Thrill Is Gone

The thrill is gone 1970 yearsTabs

Almost there ...

Sign in to get your own page with links to favourite songs and more. You are just one click away...

Login with Facebook Login with Google