Log in

One click and you are in

Login with Facebook Login with Google

Why sign up and log in

Guitar Tabs Explorer
B. B. King tabs for Sweet sixteen

Guitar tabs

B.B. King
Sweet Sixteen

<Intro>
----------------------------------------------------------------------
--------15---17b19--15--------13--------------------------------------
-14-16---------------------------14--12-------------------------------
----------------------------------------15--12------12----------------
------------------------------------------------15--------------------
----------------------------------------------------------------------
------------------------------------------------22--------------------
---15-17----15----------15-15----17b19---------------17b19-17-15------
16-------16----------16------------------------------------------16---
----------------------------------------------------------------------
----------------------------------------------------------------------
----------------------------------------------------------------------


--------------------------15--15--15--15-17---------------------------
15---------15--15--17b18--------------------17b18--15----17b18-----15-
----------------------------------------------------------------16----
----------------------------------------------------------------------
----------------------------------------------------------------------
----------------------------------------------------------------------


---------------------------------17b19--17---------15-----------------
17--15---15h17p15--------15-17-15---------17b19------19p15--15--------
--16-------------16----16---------------------------------16----------
----------------------------------------------------------------------
----------------------------------------------------------------------
----------------------------------------------------------------------


----------------------------------------------------------------------
---17b(19)b17b(19)------15------12--------13--------------------------
-16---------------------------------------14--------14----------------
-------------------------------------15------15--------15p12--12----14
-----------------------------------------------------------------16---
----------------------------------------------------------------------


-----------13---15--15b17---15p13-----10------------------------------
15---15--------------------------15------13p10--------10-----------10-
----------------------------------------------12---------10h12p10-----
----------------------------------------------------------------------
----------------------------------------------------------------------
----------------------------------------------------------------------


-----------17b20-----r17-------------------10-------------------------
--15-17-15--------------17b18-15---17b19--------13-10--10-------------
16---------------------------------------------------12--10------9----
-----------------------------------------------------------12-12---12-
----------------------------------------------------------------------
----------------------------------------------------------------------


When I first met you ba-by...
------------------------------10--10----------------------------------
---10-----10----------------10----------------------------------------
r11-----12--11------------10------------------------------------------
--------------12--------12--------------------------------------------
----------------12----------------------------------------------------
----------------------------------------------------------------------

        You can fill the rest of the song with little B.B. King style
blues licks or  E-Mail me at afaitel@online.emich.edu  if you need help
or want the lyrics or something

                              Andy Faitel

Almost there ...

Sign in to get your own page with links to favourite songs and more. You are just one click away...

Login with Facebook Login with Google