Log in

One click and you are in

Login with Facebook Login with Google

Why sign up and log in

Guitar Tabs Explorer
King bass tabs for Love and pride

Bass tabs

Tuning: Standard



INTRO / CHORUS
G |-----------------|-----------------|-----------------|-------------------|
D |-----------------|-----------------|-----------------|---------------2-3-|
A |-5---5-----------|--------23-2-----|-5---5-----------|---------2-3-------|
E |---------3-3-3-3-|-5---5-------5-3-|---------3-3-3-3-|-5---5-------------|

G |-----------------|-----------------|-----------------|-------------------|
D |-----------------|-----------------|-----------------|-------------2-3-2-|
A |-5---5-----------|--------23-2-----|-5---5-----------|---------2-3-------|
E |---------3-3-3-3-|-5---5-------5-3-|---------3-3-3-3-|-5---5-------------|

FILL
G |------------------------------|------------------------------|
D |------------------------------|------------------------------|
A |-5--------------------------2-|-5--------------------------2-|
E |-------0-3-----3-5-----0-3----|-------0-3-----3-5-----0-3----|


VERSE
G |------------------------------|------------------------------|
D |------------------------------|------------------------------|
A |-5--------------------------2-|-5--------------------------2-|
E |-------0-3-----3-5-----0-3----|-------0-3-----3-5-----0-3----|

G |------------------------------|------------------------4---5-|
D |------------------------------|------------------------------|
A |-5--------------------------2-|-5--------------------2---3---|
E |-------0-3-----3-5-----0-3----|-------0-3-----3-5------------|

G |---7--------------------4---5-|------------------------4---5-|
D |------------------------------|------------------------------|
A |-5--------------------2---3---|-5--------------------2---3---|
E |-------0-3-----3-5------------|-------0-3-----3-5------------|

G |---7--------------------4---5-|------------------------------|
D |------------------------------|---------------5---2--2-2-----|
A |-5--------------------2---3---|-5------------------------5---|
E |-------0-3-----3-5------------|-------0-3-3-3----------------|

REPEAT INTRO / CHORUS
REPEAT FILL
REPEAT VERSE
REPEAT INTRO / CHORUS

G |-----------------|-----------------|
D |-----3---2---3-5-|-----3---2-------|
A |-5---------------|-5-----------5-3-|
E |-----------------|-----------------|X9

G |-----------------|-----------------|
D |-----3---2-----5-|----2--2-2-------|
A |-5-----------3---|-----------5-----|
E |-----------------|-----------------|


INTRO / CHORUS
G |-----------------|-----------------|-----------------|-------------------|
D |-----------------|-----------------|-----------------|---------------2-3-|
A |-5---5-----------|--------23-2-----|-5---5-----------|---------2-3-------|
E |---------3-3-3-3-|-5---5-------5-3-|---------3-3-3-3-|-5---5-------------|

G |-----------------|-----------------|-----------------|-------------------|
D |-----------------|-----------------|-----------------|-------------2-3-2-|
A |-5---5-----------|--------23-2-----|-5---5-----------|---------2-3-------|
E |---------3-3-3-3-|-5---5-------5-3-|---------3-3-3-3-|-5---5-------------|

G |-----------------|-----------------|-----------------|-------------------|
D |-----------------|-----------------|-----------------|---------------2-3-|
A |-5---5-----------|--------23-2-----|-5---5-----------|---------2-3-------|
E |---------3-3-3-3-|-5---5-------5-3-|---------3-3-3-3-|-5---5-------------|


ENDING
G |-----------------|-----------------|-----------------|---------------------|
D |-----------------|-----------------|-----------------|-------------2-3-2---|
A |-5---5-----------|--------23-2-----|-5---5-----------|---------2-3-------5-|
E |---------3-3-3-3-|-5---5-------5-3-|---------3-3-3-3-|-5---5---------------|

Almost there ...

Sign in to get your own page with links to favourite songs and more. You are just one click away...

Login with Facebook Login with Google