Log in

One click and you are in

Login with Facebook Login with Google

Why sign up and log in

Guitar Tabs Explorer
Kim Petras bass tabs for My coconuts

Bass tabs

Intro:

G|---------------------------------------------------------------------------|
D|---------------------------------------------------------------------------|
A|---------------------------------------------------------------------------|
E|--------------3\/----------------------------------------------------------|


Chorus:

G|---------------------------------------------------------------------------|
D|------------------------7--------------------------------------------------|
A|----5-----5---6---7--3-5---5-----------------------------------------------|
E|--3---3-3---4---5----------------------------------------------------------|

G|---------------------------------------------------------------------------|
D|------------------------7--------------------------------------------------|
A|----5-----5---6---7--3-5---5-----------------------------------------------|
E|--3---3-3---4---5----------------------------------------------------------|

G|---------------------------------------------------------------------------|
D|------------------------7--------------------------------------------------|
A|----5-----5---6---7--3-5---5-----------------------------------------------|
E|--3---3-3---4---5----------------------------------------------------------|

G|---------------------------------------------------------------------------|
D|------------------------7--------------------------------------------------|
A|----5-----5---6---7--3-5---5-----------------------------------------------|
E|--3---3-3---4---5----------------------------------------------------------|


Verse 1:

G|---------------------------------------------------------------------------|
D|------------------------7--------------------------------------------------|
A|----5-----5---6---7--3-5---5-----------------------------------------------|
E|--3---3-3---4---5----------------------------------------------------------|

G|---------------------------------------------------------------------------|
D|------------------------7--------------------------------------------------|
A|----5-----5---6---7--3-5---5-----------------------------------------------|
E|--3---3-3---4---5----------------------------------------------------------|

G|---------------------------------------------------------------------------|
D|------------------------7--------------------------------------------------|
A|----5-----5---6---7--3-5---5-----------------------------------------------|
E|--3---3-3---4---5----------------------------------------------------------|

G|---------------------------------------------------------------------------|
D|---------------------------------------------------------------------------|
A|----5-----5---6------------------------------------------------------------|
E|--3---3-3---4--------------------------------------------------------------|

G|---------------------------------------------------------------------------|
D|---------------------------------------------------------------------------|
A|---------------------------------------------------------------------------|
E|--------------3\/----------------------------------------------------------|

Pre-Chorus:

G|---------------------------------------------------------------------------|
D|------------------------7--------------------------------------------------|
A|----5-----5---6---7--3-5---5-----------------------------------------------|
E|--3---3-3---4---5----------------------------------------------------------|

G|---------------------------------------------------------------------------|
D|------------------------7--------------------------------------------------|
A|----5-----5---6---7--3-5---5-----------------------------------------------|
E|--3---3-3---4---5----------------------------------------------------------|

G|---------------------------------------------------------------------------|
D|------------------------7--------------------------------------------------|
A|----5-----5---6---7--3-5---5-----------------------------------------------|
E|--3---3-3---4---5----------------------------------------------------------|

G|---------------------------------------------------------------------------|
D|---------------------------------------------------------------------------|
A|---------------------------------------------------------------------------|
E|--3x-----------------------------------------------------------------------|

G|---------------------------------------------------------------------------|
D|---------------------------------------------------------------------------|
A|---------------------------------------------------------------------------|
E|--------------3\/----------------------------------------------------------|


Chorus:

G|---------------------------------------------------------------------------|
D|------------------------7--------------------------------------------------|
A|----5-----5---6---7--3-5---5-----------------------------------------------|
E|--3---3-3---4---5----------------------------------------------------------|

G|---------------------------------------------------------------------------|
D|------------------------7--------------------------------------------------|
A|----5-----5---6---7--3-5---5-----------------------------------------------|
E|--3---3-3---4---5----------------------------------------------------------|

G|---------------------------------------------------------------------------|
D|------------------------7--------------------------------------------------|
A|----5-----5---6---7--3-5---5-----------------------------------------------|
E|--3---3-3---4---5----------------------------------------------------------|

G|---------------------------------------------------------------------------|
D|------------------------7--------------------------------------------------|
A|----5-----5---6---7--3-5---5-----------------------------------------------|
E|--3---3-3---4---5----------------------------------------------------------|

Post-Chorus:

G|---------------------------------------------------------------------------|
D|------------------------7--------------------------------------------------|
A|----5-----5---6---7--3-5---5-----------------------------------------------|
E|--3---3-3---4---5----------------------------------------------------------|

G|---------------------------------------------------------------------------|
D|------------------------7--------------------------------------------------|
A|----5-----5---6---7--3-5---5-----------------------------------------------|
E|--3---3-3---4---5----------------------------------------------------------|

G|---------------------------------------------------------------------------|
D|------------------------7--------------------------------------------------|
A|----5-----5---6---7--3-5---5-----------------------------------------------|
E|--3---3-3---4---5----------------------------------------------------------|

G|---------------------------------------------------------------------------|
D|------------------------7--------------------------------------------------|
A|----5-----5---6---7--3-5---5-----------------------------------------------|
E|--3---3-3---4---5----------------------------------------------------------|


Verse 2:

G|---------------------------------------------------------------------------|
D|------------------------7--------------------------------------------------|
A|----5-----5---6---7--3-5---5-----------------------------------------------|
E|--3---3-3---4---5----------------------------------------------------------|

G|---------------------------------------------------------------------------|
D|------------------------7--------------------------------------------------|
A|----5-----5---6---7--3-5---5-----------------------------------------------|
E|--3---3-3---4---5----------------------------------------------------------|

G|---------------------------------------------------------------------------|
D|------------------------7--------------------------------------------------|
A|----5-----5---6---7--3-5---5-----------------------------------------------|
E|--3---3-3---4---5----------------------------------------------------------|

G|---------------------------------------------------------------------------|
D|---------------------------------------------------------------------------|
A|----5-----5---6------------------------------------------------------------|
E|--3---3-3---4--------------------------------------------------------------|

G|---------------------------------------------------------------------------|
D|---------------------------------------------------------------------------|
A|---------------------------------------------------------------------------|
E|--------------3\/----------------------------------------------------------|


Pre-chorus:

G|---------------------------------------------------------------------------|
D|------------------------7--------------------------------------------------|
A|----5-----5---6---7--3-5---5-----------------------------------------------|
E|--3---3-3---4---5----------------------------------------------------------|

G|---------------------------------------------------------------------------|
D|------------------------7--------------------------------------------------|
A|----5-----5---6---7--3-5---5-----------------------------------------------|
E|--3---3-3---4---5----------------------------------------------------------|

G|---------------------------------------------------------------------------|
D|------------------------7--------------------------------------------------|
A|----5-----5---6---7--3-5---5-----------------------------------------------|
E|--3---3-3---4---5----------------------------------------------------------|

G|---------------------------------------------------------------------------|
D|---------------------------------------------------------------------------|
A|---------------------------------------------------------------------------|
E|----------------------------------------3\/--------------------------------|


Chorus:

G|---------------------------------------------------------------------------|
D|------------------------7--------------------------------------------------|
A|----5-----5---6---7--3-5---5-----------------------------------------------|
E|--3---3-3---4---5----------------------------------------------------------|

G|---------------------------------------------------------------------------|
D|------------------------7--------------------------------------------------|
A|----5-----5---6---7--3-5---5-----------------------------------------------|
E|--3---3-3---4---5----------------------------------------------------------|

G|---------------------------------------------------------------------------|
D|------------------------7--------------------------------------------------|
A|----5-----5---6---7--3-5---5-----------------------------------------------|
E|--3---3-3---4---5----------------------------------------------------------|

G|---------------------------------------------------------------------------|
D|------------------------7--------------------------------------------------|
A|----5-----5---6---7--3-5---5-----------------------------------------------|
E|--3---3-3---4---5----------------------------------------------------------|

Post-Chorus:

G|---------------------------------------------------------------------------|
D|------------------------7--------------------------------------------------|
A|----5-----5---6---7--3-5---5-----------------------------------------------|
E|--3---3-3---4---5----------------------------------------------------------|

G|---------------------------------------------------------------------------|
D|------------------------7--------------------------------------------------|
A|----5-----5---6---7--3-5---5-----------------------------------------------|
E|--3---3-3---4---5----------------------------------------------------------|

G|---------------------------------------------------------------------------|
D|------------------------7--------------------------------------------------|
A|----5-----5---6---7--3-5---5-----------------------------------------------|
E|--3---3-3---4---5----------------------------------------------------------|

G|---------------------------------------------------------------------------|
D|------------------------7--------------------------------------------------|
A|----5-----5---6---7--3-5---5-----------------------------------------------|
E|--3---3-3---4---5----------------------------------------------------------|

G|---------------------------------------------------------------------------|
D|---------------------------------------------------------------------------|
A|---------------------------------------------------------------------------|
E|--3x-----------------------------------------------------------------------|


Outro:

G|---------------------------------------------------------------------------|
D|---------------------------------------------------------------------------|
A|---------------------------------------------------------------------------|
E|-----------------------------------------3\/-------------------------------|


☠☠☠☠☠☠☠☠☠☠☠☠☠☠☠☠☠☠☠☠☠☠☠☠☠☠☠☠☠☠☠☠☠☠☠☠

| /  Slide up
| \  Slide down

☠☠☠☠☠☠☠☠☠☠☠☠☠☠☠☠☠☠☠☠☠☠☠☠☠☠☠☠☠☠☠☠☠☠☠☠

Almost there ...

Sign in to get your own page with links to favourite songs and more. You are just one click away...

Login with Facebook Login with Google