Log in

One click and you are in

Login with Facebook Login with Google

Why sign up and log in

Guitar Tabs Explorer
Kim Dracula bass tabs for Paparazzi

Bass tabs

Tuning: Standard (E A D G)


Verse 1, no bass:
Chorus:
G|---------------------------------------------------------------------------|
D|---------------------------------------------------------------------------|
A|---------------------5--5--5--7-7--7-5-------------------------------------|
E|--0--0-0-0/5/7-7-7----------------------7-8--------------------------------|


G|---------------------------------------------------------------------------|
D|---------------------------------------------------------------------------|
A|---------------------5--5--5--7-7--7-5-------------------------------------|
E|--0--0-0-0/5/7-7-7----------------------7-8--------------------------------|

Post Chorus:

G|---------------------------------------------------------------------------|
D|---------------------------------------------------------------------------|
A|--------------------7-------7-5--------------------------------------------|
E|----0--0--------------------------7-8--------------------------------------|

G|---------------------------------------------------------------------------|
D|---------------------------------------------------------------------------|
A|--------------------------7------------------------------------------------|
E|----0----0--------7--------------------------------------------------------|


Verse 2:

G|---------------------------------------------------------------------------|
D|---------------------------------------------------------------------------|
A|---------------------5--5--5--7-7--7-5-------------------------------------|
E|--0--0-0-0/5/7-7-7----------------------7-8--------------------------------|

G|---------------------------------------------------------------------------|
D|---------------------------------------------------------------------------|
A|---------------------5--5--5--7-7--7-5-------------------------------------|
E|--0--0-0-0/5/7-7-7----------------------7-8--------------------------------|



Bridge, no bass:


Chorus:

G|---------------------------------------------------------------------------|
D|---------------------------------------------------------------------------|
A|---------------------5--5--5--7-7--7-5-------------------------------------|
E|--0--0-0-0/5/7-7-7----------------------7-8--------------------------------|

G|---------------------------------------------------------------------------|
D|---------------------------------------------------------------------------|
A|---------------------5--5--5--7-7--7-5-------------------------------------|
E|--0--0-0-0/5/7-7-7----------------------7-8--------------------------------|


Post Chorus:

G|---------------------------------------------------------------------------|
D|---------------------------------------------------------------------------|
A|--------------------7-------7-5--------------------------------------------|
E|----0--0--------------------------7-5--------------------------------------|

G|---------------------------------------------------------------------------|
D|---------------------------------------------------------------------------|
A|--------------------------7------------------------------------------------|
E|----0----0--------7--------------------------------------------------------|


****************
/ slide up
****************

Almost there ...

Sign in to get your own page with links to favourite songs and more. You are just one click away...

Login with Facebook Login with Google