Log in

One click and you are in

Login with Facebook Login with Google

Why sign up and log in

Guitar Tabs Explorer
John Kilzer bass tabs for Red blue jeans

Bass tabs with lyrics

-------------------------------------------------------------------------------
			   RED BLUE JEANS - John Kilzer
-------------------------------------------------------------------------------

Tabbed By : Isaias Garcia (TexasFury)

URL: johnkilzeronline.com
Tuning: Standard


   m.6
   Q  Q  H      Q  Q  H      Q  Q  H      H    Q   Q
G||---------------------|---------------------|---------------------|----------------------|
D||---------------------|---------------------|---------------------|-----------5S----7----|
A||--5------------------|--1------------------|--2------------------|----------------------|
E||---------------------|---------------------|---------------------|--1-------------------|


 Verse 1
 E    E E E E E E E   E E E E E E E E   E E E E E E E E
-------------------------------|--------------------------|--------------------------|
-------------------------------|--------------------------|--5--5--5--5--5--5--5--5--|
--5-------5--5--5--5--5--5--5--|--1--1--1--1--1--1--1--0--|--------------------------|
-------------------------------|--------------------------|--------------------------|


 E E E E E E Q    E E E E E E E E   E E E E E E E E
-------------------------|---------------------------|--------------------------|
--3--3--3--3--5--5--7----|---------------------------|--------------------------|
-------------------------|--5--5--5--5--5--5--5--5S--|--1--1--1--1--1--1--1--3--|
-------------------------|---------------------------|--------------------------|


 E E E E E E E E   E E Q  E E E E   E E E E E E E E
--------------------------|-------------------------|--------------------------|
--5--5--5--5--5--5--5--5--|--3--3--3----5--5--5--7--|--------------------------|
--------------------------|-------------------------|--5--5--5--5--5--5--5--5--|
--------------------------|-------------------------|--------------------------|

 E E E E E E E E   E E E E E E E E   E E E E E E E E
--------------------------|--------------------------|--------------------------|
--------------------------|--5--5--5--5--5--5--5--5--|--3--3--3--3--5--5--5--5--|
--1--1--1--1--1--1--1--0--|--------------------------|--------------------------|
--------------------------|--------------------------|--------------------------|


 E E E E E E E E   E E E E E E E E   E E E E E E E E
---------------------------|--------------------------|--------------------------|
---------------------------|--------------------------|--5--5--5--5--5--5--5--5--|
--5--5--5--5--5--5--5--5S--|--1--1--1--1--1--1--1--3--|--------------------------|
---------------------------|--------------------------|--------------------------|


               Chorus 1
 E E E E E E E E   E    E E E E E E E   E E E E E E E E
--------------------------|---------------------------------|--------------------------|
--3--3--3--3--5--5--5--5--|---------------------------------|--------------------------|
--------------------------|--5--------5--5--5--5--5--5--5S--|--1--1--1--1--1--1--1--3--|
--------------------------|---------------------------------|--------------------------|


                            Verse 2
 E E E E E E E E   E E E E Q  E E   E    E E E E E E E
--------------------------|-------------------------|--------------------------------|
--5--5--5--5--5--5--5--5--|--3--3--3--3--5----5--7--|--------------------------------|
--------------------------|-------------------------|--5-------5--5--5--5--5--5--5S--|
--------------------------|-------------------------|--------------------------------|


 E E E E E E E E   E E E E E E E E   E E E E E E E E
--------------------------|--------------------------|--------------------------|
--------------------------|--5--5--5--5--5--5--5--5--|--3--3--3--3--5--5--5--5--|
--1--1--1--1--1--1--1--3--|--------------------------|--------------------------|
--------------------------|--------------------------|--------------------------|


 E E E E E E E E   E E E E E E E E   E E E E E E Q
---------------------------|--------------------------|-------------------------|
---------------------------|--------------------------|--5--5--5--5--5--5--5----|
--5--5--5--5--5--5--5--5S--|--1--1--1--1--1--1--1--3--|-------------------------|
---------------------------|--------------------------|-------------------------|


               Chorus 2
 E E E E E E E E   E    E E E E E E E   E E E E E E E E
--------------------------|---------------------------------|--------------------------|
--3--3--3--3--5--5--5--7--|---------------------------------|--------------------------|
--------------------------|--5--------5--5--5--5--5--5--5S--|--1--1--1--1--1--1--1--3--|
--------------------------|---------------------------------|--------------------------|


 E E E E E E E E   E E E E E E E E   E E E E E E E E
--------------------------|--------------------------|---------------------------|
--5--5--5--5--5--5--5--5--|--3--3--3--3--5--5--5--7--|---------------------------|
--------------------------|--------------------------|--5--5--5--5--5--5--5--5S--|
--------------------------|--------------------------|---------------------------|


 E E E E E E E E   E E E E E E E E   E E E E E E Q
--------------------------|--------------------------|-------------------------|
--------------------------|--5--5--5--5--5--5--5--5--|--3--3--3--3--3--2-------|
--1--1--1--1--1--1--1--3--|--------------------------|--------------------5----|
--------------------------|--------------------------|-------------------------|


 Bridge
 E   E E E E E E E   E E E E E E  Q    E E E E E E E E
------------------------------|--------------------------|--------------------------|
------------------------------|--5--5--5--5--5--5S--7----|--------------------------|
--3------3--3--3--3--3--3--3--|--------------------------|--5--5--5--5--5--5--5--5--|
------------------------------|--------------------------|--------------------------|


 E E E  E Q  Q    E E E E E E E E   E E E E E E Q
-------------------------|--------------------------|-------------------------|
-------------------------|--------------------------|--5--5--5--5--5--5--5----|
--5--5--5s--7--L----8----|--3--3--3--3--3--3--3--3--|-------------------------|
-------------------------|--------------------------|-------------------------|


 E E E E E E E E   E E E E E E Q    E E E E E E E E
--------------------------|-------------------------|--------------------------|
--------------------------|-------------------------|--------------------------|
--5--5--5--5--5--5--5--5--|--5--5--5--5--5-----5----|--3--3--3--3--3--3--3--3--|
--------------------------|-----------------5-------|--------------------------|


 E E E E E E E E   E E E E E E E E   E E E  E Q  Q    W
--------------------------|--------------------------|-------------------------|---------------|
--5--5--5--5--5--5--5--5--|--------------------------|-------------------------|---------------|
--------------------------|--5--5--5--5--5--5--5--5--|--5--5--5s--7--L----8----|--3------------|
--------------------------|--------------------------|-------------------------|---------------|


 W          Q.   E Q  Q    W          H.      Q
-------------------|----------------------|-------------------|----------------------|
--5----------------|----------------------|-------------------|----------------------|
-------------------|--5------7--L----8----|--1----------------|--L------------12\----|
-------------------|----------------------|-------------------|----------------------|


 Guitar Solo
 E      E E E E E E E   E E E E E E E E   E E E E E E E E
-----------------------------------|--------------------------|--------------------------|
-----------------------------------|--------------------------|--5--5--5--5--5--5--5--5--|
--5-----------5--5--5--5--5--5--5--|--1--1--1--1--1--1--1--0--|--------------------------|
-----------------------------------|--------------------------|--------------------------|


 E E E E E E E E   E E E E E E E E   E E E E E E E E
--------------------------|--------------------------|--------------------------|
--3--3--3--3--5--5--5--5--|--------------------------|--------------------------|
--------------------------|--5--5--5--5--5--5--5--5--|--1--1--1--1--1--1--1--0--|
--------------------------|--------------------------|--------------------------|


 E E E E E E E E   E E E E E E E E   E E E E E E E E
--------------------------|--------------------------|--------------------------|
--5--5--5--5--5--5--5--5--|--3--3--3--3--5--5--5--5--|--------------------------|
--------------------------|--------------------------|--5--5--5--5--5--5--5--5--|
--------------------------|--------------------------|--------------------------|


 E E E E E E E E   E E E E E E E E   E E E E E E E E
--------------------------|--------------------------|--------------------------|
--------------------------|--5--5--5--5--5--5--5--5--|--3--3--3--3--5--5--5--5--|
--1--1--1--1--1--1--1--3--|--------------------------|--------------------------|
--------------------------|--------------------------|--------------------------|


 E E E E E E E E   E E E E E E E E   E E E E E E E E
--------------------------|--------------3-----------|--------------------------|
--------------------------|--------------------------|--5--5--5--5--5--5--5--5--|
--5--5--5--5--5--5--5--5--|--1--1--1--1-----1--1--3--|--------------------------|
--------------------------|--------------------------|--------------------------|


              Guitar Breakdown
 Q  E E Q  E E   E        E  Q  H      W
------------------------|-------------------------------------|-------------------|
--3----3--3--5----5--5--|-------------------------------------|-------------------|
------------------------|--5----------------L\----------------|-------------------|
------------------------|-------------------------------------|-------------------|


 W          W          Q  Q  H      Q  Q  H
-------------------|-------------------|---------------------|---------------------|
-------------------|-------------------|---------------------|---------------------|
-------------------|-------------------|--5------------------|--1------------------|
-------------------|-------------------|---------------------|---------------------|


                          Chorus 3
 Q  Q  H      Q  Q  E E  E  E   E    E E E E E E E
---------------------|--------------------------|---------------------------------|
---------------------|--3---------5--7S--5p--3--|---------------------------------|
--2------------------|-------5------------------|--5--------5--5--5--5--5--5--5S--|
---------------------|--------------------------|---------------------------------|


 E E E E E E E E   E E E E E E E E   E E E E E E E E
--------------------------|--------------------------|--------------------------|
--------------------------|--5--5--5--5--5--5--5--5--|--3--3--3--3--5--5--5--7--|
--1--1--1--1--1--1--1--3--|--------------------------|--------------------------|
--------------------------|--------------------------|--------------------------|


 E E E E E E E E   E E E E E E E E   E E E E E E E E
---------------------------|--------------------------|--------------------------|
---------------------------|--------------------------|--5--5--5--5--5--5--5--5--|
--5--5--5--5--5--5--5--5S--|--1--1--1--1--1--1--1--3--|--------------------------|
---------------------------|--------------------------|--------------------------|


 E E E E E E Q    E E E E E E E E   E E E E E E E E
-------------------------|---------------------------|--------------------------|
--3--3--3--3--5--7--5----|---------------------------|--------------------------|
-------------------------|--5--5--5--5--5--5--5--5S--|--1--1--1--1--1--1--1--3--|
-------------------------|---------------------------|--------------------------|


 E E E E E E E E   E E E E E E E E   E E E E E E E E
--------------------------|--------------------------|---------------------------|
--5--5--5--5--5--5--5--5--|--3--3--3--3--5--3--------|---------------------------|
--------------------------|--------------------5--3--|--5--5--5--5--5--5--5--5S--|
--------------------------|--------------------------|---------------------------|


 E E E E E E E E   E E E E E E E E   E E E  E E E Q
--------------------------|--------------------------|--------------------------|
--------------------------|--------------------------|--3--3--L\--3--5--5--7----|
--1--1--1--1--1--1--1--3--|--2--2--2--2--2--2--2--2--|--------------------------|
--------------------------|--------------------------|--------------------------|


 E E E E E E E E   E E E E E E E E   E E E E E E E E
---------------------------|--------------------------|--------------------------|
---------------------------|--------------------------|--------------------------|
--5--5--5--5--5--5--5--5S--|--1--1--1--1--1--1--1--3--|--2--2--2--2--2--2--2--2--|
---------------------------|--------------------------|--------------------------|


              Outro
 E E E E E E Q    E   E E E E E E E   E E E E E E E E
-------------------------|------------------------------|--------------------------|
--3--3--3--3--5--7--5----|------------------------------|--------------------------|
-------------------------|--5-----5--5--5--5--5--5--5S--|--1--1--1--1--1--1--1--0--|
-------------------------|------------------------------|--------------------------|


 E E E E E E E E   Q.   E Q  Q    E E E E E E E E
--------------------------|----------------------|--------------------------|
--------------------------|----------------------|--------------------------|
--2--2--2--2--2--2--2--2--|--3------3--4----5----|--5--5--5--5--5--5--5--0--|
--------------------------|----------------------|--------------------------|


 E E E E E E E E   E E E E E E E E   E E E E E E E E
--------3-----------------|--------------------------|--------------------------|
--------------------------|--------------------------|--------------------------|
--1--1-----1--1--1--1--3--|--2--2--2--2--2--2--2--2--|--3--3--3--3--4--4--4--4--|
--------------------------|--------------------------|--------------------------|


 E E E E E E E E   E E E E E E E E   E E E E E E E E
--------------------------|--------------------------|--------------------------|
--------------------------|--------------------------|--------------------------|
--5--5--5--5--5--5--5--0--|--1--1--1--1--1--1--1--1--|--2--2--2--2--2--2--2--2--|
--------------------------|--------------------------|--------------------------|


 E E E E E E E E   E E E E E E E E   E E E E E E E E
--------------------------|---------------------------|--------------------------|
--------------------------|---------------------------|--------------------------|
--3--3--3--3--4--4--4--4--|--5--5--5--5--5--5--5--5S--|--1--1--1--1--1--1--1--1--|
--------------------------|---------------------------|--------------------------|


 E E E E E E E E   E E E E E E E E   E E E E E E E E
--------------------------|--------------------------|---------------------------|
--------------------------|--------------------------|---------------------------|
--2--2--2--2--2--2--2--2--|--3--3--3--3--4--4-----5--|--5--5--5--5--5--5--5--5S--|
--------------------------|--------------------------|---------------------------|


 E E E E E E E E
--------------------------||
--------------------------||
--1--1--1--1--1--1--1--1--||
--------------------------||



Duration 🏷Legend
---------------
W - whole
H - half
Q - quarter
E - 8th
S - 16th
T - 32nd
X - 64th
. - note dotted
|-n-| - n-tuplets


Tablature 🏷Legend
----------------
L - tied note
x - dead note
g - grace note
(n) - ghost note
> - accentuded note
NH - natural harmonic
AH - artificial harmonic
TH - tapped harmonic
SH - semi harmonic
PH - pitch harmonic
h - hammer on
p - pull off
b - bend
br - bendRelease
pb - preBend
pbr - preBendRelease
brb - bendReleaseBend
\n/ - tremolo bar dip
\n - tremolo bar dive
-/n - tremolo bar Release up
/n\ - tremolo bar inverted dip
/n - tremolo bar return
-\n - tremolo bar Release down
S - shift slide
s - legato slide
/ - slide into from below or out of upwards
\ - slide into from above or out of downwards
~ - vibrato
W - wide vibrato
tr - trill
TP - tremolo picking
T - tapping
S - slap
P - pop
< - fade in
^ - brush up
v - brush down

Almost there ...

Sign in to get your own page with links to favourite songs and more. You are just one click away...

Login with Facebook Login with Google