Log in

One click and you are in

Login with Facebook Login with Google

Why sign up and log in

Guitar Tabs Explorer
Killswitch Engage tabs for In due time

Guitar tabs

Drop A chord diagramC majorC tuning CGCFAD
* - palm muting

The intro version was good for this song, but I wanted to add the bridge, chorus, solo, etc...
Intro Guitar 1

------------------------------------------------------------------------|
------------------------------------------------------------------------|
------------------------------------------------------------------------|
------------------------------------------------------------------------|
----------------^--------^----------^--------^----------^--------^------|
0-/19\--0--00-10-12-00-10-12-0000-10-13-00-10-13-0000-13-10-00-10-13-12~|
           **       **       ****       **       ****       **

--------------------------------------------|
--------------------------------------------|
----------------------------1211--11-8---7--|
-----------------------------X-X---X-X---X--|
------^--------^------------10\9---9\6---5--|
-00-10-12-00-10-12-0000-0--0-----0-----0----|
 **       **       ****    *     *     * ~

-----------------------------------------------------------------|
-----------------------------------------------------------------|
-----------------------------------------------------------------|
-----------------------------------------------------------------|
---------^--------^----------^--------^----------^--------^------|
-0--00-10-12-00-10-12-0000-10-13-00-10-13-0000-13-10-00-10-13-12~|
    **       **       ****       **       ****       **

-----------------------------------------|
-----------------------------------------|
-----------------------------------------|
---------------------------------2/1-----| X2
------^--------^-----------0-1-3-2/1-3-1-|
-00-10-12-00-10-12-0000-0--0-1-3-----3-1-|
 **       **       ****    * * *     * *

Guitar 2 comes in on the repeat

-----------------------------------------------------------------|
-----------------------------------------------------------------|
-----------------------------------------------------------------|
---------^--------^----------^--------^----------^--------^------|
-------10-12----10-12------10-13----10-13------13-10----10-13-12~|
-0--00-------00-------0000-------00-------0000-------00----------|
    **       **       ****       **       ****       **
------------------------------------------------|
------------------------------------------------|
----------------------------15-14---14-12--11---|
------^--------^-------------X--X----X--X---X---|
----10-12----10-12----------13\12---12\10---9---|
-00-------00-------0000-0--0------0-------0-----|
 **       **       ****    *      *       * ~

-----------------------------------------------------------------|
-----------------------------------------------------------------|
-----------------------------------------------------------------|
---------^--------^----------^--------^----------^--------^------|
-------10-12----10-12------10-13----10-13------13-10----10-13-12~|
-0--00-------00-------0000-------00-------0000-------00----------|
    **       **       ****       **       ****       **

--------------------------------------------|
--------------------------------------------|
--------------------------------------------|
------^--------^----------------------------|
----10-12----10-12--------------------------|
-00-------00-------0000-0-------------------|
 **       **       ****

Verse

----------------------------------------------------------------|
-------------------------------------------------6-5------------|
-------------------------------------------------5-5---PH-------|
-0-----3---1---1-1-0-------------0-----3---1-----------5~-3-2---|
-0-----3---1---1-1-0-------------0-----3---1------------------3-|
-0-0-0-3-0-1-0-1-1-0-0-0-000-000-0-0-0-3-0-1-0-------0----------|
   * *   *   *       * * *** ***   * *   *   *       *


-------------------------------------------------------------------------|
-------------------------------------------------6--66--8-88-------------|
-------------------------------------------------3--33--5-55-------------|
-0-----3---1---1-1-0-------------0-----3---1-----------------------------|
-0-----3---1---1-1-0-------------0-----3---1-----------------------------|
-0-0-0-3-0-1-0-1-1-0-0-0-000-000-0-0-0-3-0-1-0---------------------------|
   * *   *   *       * * *** ***   * *   *   *


----------------------------------------------------------------|
-------------------------------------------------6-5------------|
-------------------------------------------------5-5---PH-------|
-0-----3---1---1-1-0-------------0-----3---1-----------5~-3-2---|
-0-----3---1---1-1-0-------------0-----3---1------------------3-|
-0-0-0-3-0-1-0-1-1-0-0-0-000-000-0-0-0-3-0-1-0-------0----------|
   * *   *   *       * * *** ***   * *   *   *       *


----------------------------------------------------------------------|
----------------------------------------------------------------------|
-------------------------------------------------10-1010-10-12--12-12-|
-0-----3---1---1-1-0-------------0-----3---1----/8---8-8--8/10--10-10-|
-0-----3---1---1-1-0-------------0-----3---1--------------------------|
-0-0-0-3-0-1-0-1-1-0-0-0-000-000-0-0-0-3-0-1-0------------------------|
   * *   *   *       * * *** ***   * *   *   *


Chorus lick
I'm not sure whether the notes on the 1st string ring out, but they sound super cool so why not

----(5)-(55)----(88)-(88)-------------------------------------------|
-----6---66------88---88------10-10-8--8--8--68---------------------|
-----5---55------55---55------10-10-9--9--5--55---------------------| Play 4X first chorus
-8--88--888---5--55--555--0--0--0--0--0--0--0-----------------------|
--------------------------0-----------------------------------------|
--------------------------------------------------------------------|
                             *  *  *  *  *  *


Verse 2 - Repeat intro and Verse


Chorus 2
Play Chorus lick twice

--------------------------------------------------------------------|
--------------------------------------------------------------------|
--------------------------------------------------------------------|
-----10---10--------10----10----------------------------------------| 2X But skip the last
----8----8--------10----10------------------------------------------| note of the last
-8------8---8-10------10----10-0-0-000-000-000-000-000-000-000------| triplet the 2nd time
Partial Palm Muting***********
Full palm muting                 * *** *** *** *** *** *** ***


Bridge

--------------------------------------------------------------------|
---6---6----8---8---8-------10----10----13--11--10------------------|
--7---7----9---9---9-10---10----10----10------------12-10-----------|  4X
-7---7---10--10--10-----12----12----12----12--12--12----------------|
--------------------------------------------------------------------|
--------------------------------------------------------------------|
 **  **  **  **  **      **    **    **    *   *   *


Solo

|------------------------------------------------------------------------|
|--13b15-T16-r13----10h11p10---------------------------------------------|
|---------------------------10--10-10/12-10-9----------------------------|
|-----------------------------10-----------------------------------------|
|------------------------------------------------------------------------|
|------------------------------------------------------------------------|

|----------------------------------------------------------------------|
|----------------------------------------------------------------------|
|-----------t14p7h10--x4--t17p7h10--x4--t17p10h14--x4--t15p10h14--x4---|
|----------------------------------------------------------------------|
|----------------------------------------------------------------------|
|----------------------------------------------------------------------|

|----------------------------------------------------------------------|
|----------------------------------------------------------------------|
|--t19p10h15--x4--t22p10h15--x4--t22p10h12--x4--t21p10h12--x4----------|
|----------------------------------------------------------------------|
|----------------------------------------------------------------------|
|----------------------------------------------------------------------|

|-------------------------------------------17b18r17p15----------------|
|--20b22--rp22~~~~~~---20b22r20p18-----------------------18\15--15\10--|
|----------------------------------19~~~~------------------------------|
|----------------------------------------------------------------------|
|----------------------------------------------------------------------|
|----------------------------------------------------------------------|

|-------------------------------------------1----------1-----------3-------|
|--10/13--13/15--15/17--17\13~~~~~------3----------3-----------6-----------|
|-----------------------------------2-----------2----------5---------------|
|--------------------------------------------------------------------------|
|--------------------------------------------------------------------------|
|--------------------------------------------------------------------------|

|----------3--------3------------5----------5--------8-----6-----5-----------|
|------6---------6----6-------6---------6---------6--------------------8--6--|
|--5----------5------------7--------7----------5--------5-----5-----5--------|
|----------------------------------------------------------------------------|
|----------------------------------------------------------------------------|
|----------------------------------------------------------------------------|
ⓘ Guitar tab for 'In Due Time' by Killswitch Engage, a metalcore band formed in 1999 from Westfield, MA. Killswitch Engage is known for their intense metal music.

Almost there ...

Sign in to get your own page with links to favourite songs and more. You are just one click away...

Login with Facebook Login with Google