Log in

One click and you are in

Login with Facebook Login with Google

Why sign up and log in

Guitar Tabs Explorer
The Killers tabs for When you were young

Guitar tabs

Main Riff

--------------------------------------------------------
--------------------------------------------------------
---5-----7-----9-----12-----5---------------------------------
---5-x8--7-x4--9-x4--12-x8--5-x8---------------------------------------
---3-----5-----7-----10-----3---------------------------------
--------------------------------------------------------


Solo

---12-------15------------------------------------------------
------8-10-----11-13-------------------------------------------
---------------------------------------------------------
---------------------------------------------------------
---------------------------------------------------------
---------------------------------------------------------

Other versions of When You Were Young

When you were young acousticChords
When you were youngTabs
When you were young (Ver. 2)Tabs

Almost there ...

Sign in to get your own page with links to favourite songs and more. You are just one click away...

Login with Facebook Login with Google