Log in

One click and you are in

Login with Facebook Login with Google

Why sign up and log in

Guitar Tabs Explorer
The Killers bass tabs for Under the gun

Bass tabs

Verse: (repeat twice)

G|------------------------------------|--------------------------------|
D|------------------------------------|--------------------------------|
A|--6---6---6-6-6---6-6-6-6-6-6-6-6-4-|--4---4-4-4---4-4-4-4-4-4-4-4---|
E|------------------------------------|--------------------------------|

G|------------------------------------|--------------------------------|
D|------------------------------------|--------------------------------|
A|--6---6---6-6-6---6-6-6-6-6-6-6-6-8-|--8---8-8-8---8-8-8-8-8-8-8-8---|
E|------------------------------------|--------------------------------|
Pre-Chorus:

G|----------------------------------|----------------------------------|
D|----------------------------------|----------------------------------|
A|----------------------------------|----------------------------------|
E|--6-6-6-6-6-6-6-6-6-6-6-6-6-6-6-6-|-4-4-4-4-4-4-4-4-4-4-4-4-4-4-4-4--|

G|----------------------------------|-----------------------------------|
D|----------------------------------|--------------/6---6-6-6-6-6-6-6---|
A|----------------------------------|-----------------------------------|
E|--6-6-6-6-6-6-6-6-6-6-6-6-6-6-6-6-|-4-4-4-4-4-4-----------------------|


Chorus:

G|------------------|-----------------|---------------------------------|
D|----------------3-|-----------------|------------------------3--------|
A|--4-4-4-4-4-4-6---|-3-3-3-3-3-3-4-6-|--------------------------6-4-3--|
E|------------------|-----------------|-6-6-6-6-6-6-6-6-6-6-6-6---------|

G|------------------|-----------------|---------------------------------|
D|----------------3-|-----------------|---------------------------------|
A|--4-4-4-4-4-4-6---|-3-3-3-3-3-3-4-6-|---------------------------------|
E|------------------|-----------------|-6-6-6-6-6-6-6-6-6-6-6-6-6-6-6-6-|

Verse: (repeat twice)

G|------------------------------------|--------------------------------|
D|------------------------------------|--------------------------------|
A|--6---6---6-6-6---6-6-6-6-6-6-6-6-4-|--4---4-4-4---4-4-4-4-4-4-4-4---|
E|------------------------------------|--------------------------------|

G|------------------------------------|--------------------------------|
D|------------------------------------|--------------------------------|
A|--6---6---6-6-6---6-6-6-6-6-6-6-6-8-|--8---8-8-8---8-8-8-8-8-8-8-8---|
E|------------------------------------|--------------------------------|


Pre-Chorus:

G|----------------------------------|----------------------------------|
D|----------------------------------|----------------------------------|
A|----------------------------------|----------------------------------|
E|--6-6-6-6-6-6-6-6-6-6-6-6-6-6-6-6-|-4-4-4-4-4-4-4-4-4-4-4-4-4-4-4-4--|

G|----------------------------------|-----------------------------------|
D|----------------------------------|--------------/6---6-6-6-6-6-6-6---|
A|----------------------------------|-----------------------------------|
E|--6-6-6-6-6-6-6-6-6-6-6-6-6-6-6-6-|-4-4-4-4-4-4-----------------------|


Chorus:

G|------------------|-----------------|---------------------------------|
D|----------------3-|-----------------|------------------------3--------|
A|--4-4-4-4-4-4-6---|-3-3-3-3-3-3-4-6-|--------------------------6-4-3--|
E|------------------|-----------------|-6-6-6-6-6-6-6-6-6-6-6-6---------|

G|------------------|-----------------|---------------------------------|
D|----------------3-|-----------------|---------------------------------|
A|--4-4-4-4-4-4-6---|-3-3-3-3-3-3-4-6-|---------------------------------|
E|------------------|-----------------|-6-6-6-6-6-6-6-6-6-6-6-6-6-6-6-6-|


Bridge:

G|--------------|--------------------|-------------|----------------------|
D|--------------|---/8-8-8-8-8-8-8-8-|-------------|--/6-6-6/8/10---6-----|
A|--------------|--------------------|-------------|----------------------|
E|--6-------6---|--------------------|-4-------4---|----------------------|

G|--------------|--------------------|--------------|----------------------|
D|--------------|---/8-8-8-8-8-8-8-8-|--------------|-/6-6-6/8/10---10-----|
A|--------------|--------------------|--------------|----------------------|
E|--6-------6---|--------------------|-4-------4----|----------------------|

G|------------------|-----------------|---------------------------------|
D|------------------|-----------------|---------------------------------|
A|--9-9-9-8-8-8-8-8-|-9-9-9-8-8-8-8-8-|9-9-9-8-8-8-8-8-8-9--------------|
E|------------------|-----------------|---------------------------------|


Pre-Chorus:

G|----------------------------------|----------------------------------|
D|----------------------------------|----------------------------------|
A|----------------------------------|----------------------------------|
E|--6-6-6-6-6-6-6-6-6-6-6-6-6-6-6-6-|-4-4-4-4-4-4-4-4-4-4-4-4-4-4-4-4--|

G|----------------------------------|-----------------------------------|
D|----------------------------------|--------------/6---6-6-6-6-6-6-6---|
A|----------------------------------|-----------------------------------|
E|--6-6-6-6-6-6-6-6-6-6-6-6-6-6-6-6-|-4-4-4-4-4-4-----------------------|


Chorus:

G|------------------|-----------------|---------------------------------|
D|----------------3-|-----------------|------------------------3--------|
A|--4-4-4-4-4-4-6---|-3-3-3-3-3-3-4-6-|--------------------------6-4-3--|
E|------------------|-----------------|-6-6-6-6-6-6-6-6-6-6-6-6---------|

G|------------------|-----------------|---------------------------------|
D|----------------3-|-----------------|---------------------------------|
A|--4-4-4-4-4-4-6---|-3-3-3-3-3-3-4-6-|-------------------------3-3-3-3-|
E|------------------|-----------------|-6-6-6-6-6-6-6-6-6-6-6-6---------|

G|--------|
D|--------|
A|--4-4---|
E|--------|

Almost there ...

Sign in to get your own page with links to favourite songs and more. You are just one click away...

Login with Facebook Login with Google