Log in

One click and you are in

Login with Facebook Login with Google

Why sign up and log in

Guitar Tabs Explorer
The Killers bass tabs for Somebody told me

Bass tabs

Intro:
Gb|-----------------|-----------------|-----------------|-----------------|
Db|-----------------|-----------------|-----------------|-----------------|
Ab|-----------------|-----------------|-----------------|-----------------|
Eb|-7---------------|-----------------|-----------------|-----------------|

Gb|------16----14-14-------|------------------------|------16\----------|-----------------|
Db|---------------------17-|---17-17----16-16-16----|----X--------------|-----------------|
Ab|-14------14-------14----|---------14----------17-|-14----------------|-----------------|
Eb|------------------------|------------------------|-------------------|-----------------|

Gb|----------------------12-|---12-12-11-12-12-12-11-|------------------|-----------------|
Db|-14-14-14-14-12-12-12----|------------------------|------------------|-----------------|
Ab|-------------------------|------------------------|-14-14-14\--------|-----------------|
Eb|-------------------------|------------------------|------------------|-----------------|
Verse 1:
Gb|-----------------|-----------------|-----------------|-----------------|
Db|-----------------|-----------------|-----------------|-----------------|
Ab|-----------------|-----------------|-----------------|-------------14\-|
Eb|-7---------------|-----------------|/7---------------|-----------------|

Gb|------------------|----------------------|-----------------|-------------------|
Db|------------------|----------------------|-----------------|-------------------|
Ab|-7-7-----7-7---10-|---10-10-9-10-10-10-9-|-----------------|-----------12-14---|
Eb|-----0-0-----0----|----------------------|-7-7-7-7-7-7-7-7-|-7-7-7-7-7---------|

Gb|-----------------|-----------------|-----------------|-------------------|
Db|-----------------|-----------------|-----------------|-------------------|
Ab|-----------------|-----------------|-----------------|---------------9-9-|
Eb|/7-7-7-7-7-7-7-7-|-7-7-7-7-7-5-7-5-|-7-7-7-7-7-7-7-7-|-7-7-9-9-10-10-----|

Gb|------------------|----------------------|-----------------|-------------------|
Db|------------------|----------------------|-----------------|-------------------|
Ab|-7-7-----7-7---10-|---10-10-9-10-10-10-9-|-----------------|-----------12-14---|
Eb|-----0-0-----0----|----------------------|-7-7-7-7-7-7-7-7-|-7-7-7-7-7---------|

Gb|-----------------|-------------------|
Db|-----------------|-------------------|
Ab|-----------------|-------------------|
Eb|/7-7-7-7-7-7-7-7-|-7-7-9-9-10-10-9-9-|

Pre-Chorus 1:
Gb|-----------------|-----------------|-----------------|-----------------------|
Db|-----------------|-----------------|-----------------|-----------------------|
Ab|-----------------|-----------------|-----------------|---12-14-12-14-12-14---|
Eb|-3-3-3-3-3-3-3-3-|-5-5-5-5-5-5-5-5-|-7-7---5-7-7---5-|-7---------------------|

Gb|-----------------|-----------------|-----------------|-----------------|
Db|-----------------|-----------------|-----------------|-----------------|
Ab|-----------------|-----------------|-----------------|-----------------|
Eb|-3-3-3-3-3-3-3-3-|-3-3-3-3-3-3-3-3-|-5-5-5-5-5-5-5-5-|-5---5---------5-|


Chorus 1:

Gb|-------------------|-------------------|-------------------|-------------------|
Db|-------14---16-----|-------16---14-----|-------12---14-----|-------12---11-----|
Ab|-------------------|-------------------|-------------------|-------------------|
Eb|-7-7-------------2-|-3-3-------------3-|-5-5-------------0-|-2-2-------------5-|

Gb|-------------------|-------------------|-------------------|-------------------|
Db|-------14---16-----|-------16---14-----|-------12---14-----|-------------------|
Ab|-------------------|-------------------|-------------------|-------------------|
Eb|-7-7-------------2-|-3-3-------------3-|-5-5---------------|-2-----------------|


Verse 2:

Gb|-----------------|-------------------|-----------------|-------------------|
Db|-----------------|-------------------|-----------------|-------------------|
Ab|-----------------|-----------10-12---|-----------------|---------------9-9-|
Eb|/7-7-7-7-7-7-7-7-|-7-7-7-7-7---------|-7-7-7-7-7-7-7-7-|-7-7-9-9-10-10-----|

Gb|------------------|----------------------|-----------------|-------------------|
Db|------------------|----------------------|-----------------|-------------------|
Ab|-7-7-----7-7---10-|---10-10-9-10-10-10-9-|-----------------|-------------------|
Eb|-----0-0-----0----|----------------------|-7-7-7-7-7-7-7-7-|-7-7-7-7-7-5-7-5---|

Gb|-----------------|-------------------|
Db|-----------------|-------------------|
Ab|-----------------|-------------------|
Eb|/7-7-7-7-7-7-7-7-|-7-7-9-9-10-10-9-9-|


Pre-Chorus 2:
Gb|-----------------|-----------------|-----------------|-----------------------|
Db|-----------------|-----------------|-----------------|-----------------------|
Ab|-----------------|-----------------|-----------------|---12-14-12-14-12-14---|
Eb|-3-3-3-3-3-3-3-3-|-5-5-5-5-5-5-5-5-|-7-7---5-7-7---5-|-7---------------------|

Gb|-----------------|-----------------|-----------------|-----------------|
Db|-----------------|-----------------|-----------------|-----------------|
Ab|-----------------|-----------------|-----------------|-----------------|
Eb|-3-3-3-3-3-3-3-3-|-3-3-3-3-3-3-3-3-|-5-5-5-5-5-5-5-5-|-5---5---------5-|


Chorus 2:
Gb|-------------------|-------------------|-------------------|-------------------|
Db|-------14---16-----|-------16---14-----|-------12---14-----|-------12---11-----|
Ab|-------------------|-------------------|-------------------|-------------------|
Eb|-7-7-------------2-|-3-3-------------3-|-5-5-------------0-|-2-2-------------5-|

Gb|-------------------|-------------------|-------------------|-------------------|
Db|-------14---16-----|-------16---14-----|-------12---14-----|-------12---11-----|
Ab|-------------------|-------------------|-------------------|-------------------|
Eb|-7-7-------------2-|-3-3-------------3-|-5-5-------------0-|-2-2---------------|


Bridge:
Gb|----------------|------------------|-----------------|-----------------|
Db|----------------|------------------|-----------------|-----------------|
Ab|-10-------------|-12---------------|-7---------------|-----------------|
Eb|----------------|------------------|-------------7---|-0---------------|

Gb|----------------|------------------|-------------------|-----------------------|
Db|----------------|------------------|-------------------|-----------------------|
Ab|-5-----------5--|-7-----7---7-7-10-|-10-----10---------|---10---10-10-10-12-12-|
Eb|-----------5----|------------------|-------------------|-----------------------|

Gb|-------------------------|-------------------------|-------------------------|
Db|-------------------------|-------------------------|-------------------------|
Ab|-14-14-14-16-16-17-17-17-|-12-12-12-16-16-17-17-17-|-10-10-10-17-17-16-16-16-|
Eb|-------------------------|-------------------------|-------------------------|

Gb|-------------------------|-----------------|-------------------------|-------------------|
Db|-------------------------|-----------------|-------------------------|-------------------|
Ab|-10-10-10-10-10-10-10-10-|-9-9-9-9-9-9-9-9-|-12-12-12-12-12-12-12-12-|-12---12-----------|
Eb|-------------------------|-----------------|-------------------------|-----------------5-|


Chorus 3:
Gb|-------------------|-------------------|-------------------|-------------------|
Db|-------14---16-----|-------16---14-----|-------12---14-----|-------12---11-----|
Ab|-------------------|-------------------|-------------------|-------------------| x4
Eb|-7-7-------------2-|-3-3-------------3-|-5-5-------------0-|-2-2-------------5-|


Chorus 4:
Gb|-----------------|-----------------|-----------------|-----------------|
Db|-----------------|-----------------|-----------------|-----------------|
Ab|-----------------|-----------------|-----------------|-----------------| x2
Eb|-7-7-7-7-7-7-7-7-|-3-3-3-3-3-3-3-3-|-5-5-5-5-5-5-5-5-|-2-2-2-2-2-2-2-2-|

Gb|-----------------|
Db|-----------------|
Ab|-----------------|
Eb|-7-7-------------|


************************************

| b  Bend
| \  Slide down
| /  Slide up
| X

↓ Add and view comments below ↓

What do you think about this song and these tabs?

Add your comments, questions, rant or a thumbs up below.

Almost there ...

Sign in to get your own page with links to favourite songs and more. You are just one click away...

Login with Facebook Login with Google