Log in

One click and you are in

Login with Facebook Login with Google

Why sign up and log in

Guitar Tabs Explorer
The Killers bass tabs for Smile like you mean it

Smile Like You Mean It bass tab by The Killers

The Killers bass tabs for Smile like you mean it

Bass tabs

Intro:
(0:14)
Gb|------------------------------------|------------------------------|
Db|----------------9-9-----------------|------------------------------|
Ab|-10-10-10-10-10-----0---------------|-7-7-7-7-7--5--7--7-7--7--5-7-|
Eb|----------------------5-5--5--5-5-5-|------------------------------|

Gb|------------------------------------|------------------------------|
Db|----------------9-9-----------------|------------------------------|
Ab|-10-10-10-10-10-----0---------------|-7-7-7-7-7--5--7--7-7--7--5-7-|
Eb|----------------------5-5--5--5-5-5-|------------------------------|
Verse 1:
(0:30)
Gb|------------------------------------|------------------------------|
Db|----------------9-9-----------------|------------------------------|
Ab|-10-10-10-10-10-----0---------------|-7-7-7-7-7--5--7--7-7--7--5-7-|
Eb|----------------------5-5--5--5-5-5-|------------------------------|
                                            (Break)
Gb|------------------------------------|------------------------------|
Db|----------------9-9-----------------|------------------------------|
Ab|-10-10-10-10-10-----0---------------|-7-7-7-7-7--5--7--7-7--7--5-5-|
Eb|----------------------5-5--5--5-5-5-|------------------------------|

Gb|------------------------------------|------------------------------|
Db|----------------9-9-----------------|------------------------------|
Ab|-10-10-10-10-10-----0---------------|-7-7-7-7-7--5--7--7-7--7--5-7-|
Eb|----------------------5-5--5--5-5-5-|------------------------------|

Gb|------------------------------------|--------------------------------|
Db|----------------9-9-----------------|--------------------------------|
Ab|-10-10-10-10-10-----0---------------|-7-7-7-7-7--5--7--7-7--7--5-5-5-|
Eb|----------------------5-5--5--5-5-5-|--------------------------------|

Chorus 1:
(1:00)
Gb|----------------------------|---------------------|
Db|----------------------------|---------------------|
Ab|----------------------------|---------------------|
Eb|-7--7--7-7-7-0-8--8-8-8-8-8-|-3-3-3-0-3-2-2-2-2-2-|

Gb|----------------------------|---------------------|
Db|----------------------------|---------------------|
Ab|----------------------------|---------------------|
Eb|-7--7--7-7-7-0-8--8-8-8-8-8-|-3-3-3-0-3-2-2-2-2-2-|


Verse 2:
(1:16)
Gb|------------------------------------|------------------------------|
Db|----------------9-9-----------------|------------------------------|
Ab|-10-10-10-10-10-----0---------------|-7-7-7-7-7--5--7--7-7--7--5-7-|
Eb|----------------------5-5--5--5-5-5-|------------------------------|
                                               (Break)

Gb|------------------------------------|------------------------|-----|
Db|----------------9-9-----------------|------------------------|-----|
Ab|-10-10-10-10-10-----0---------------|------------------------|-5-5-|
Eb|----------------------5-5--5--5-5-5-|--8-8-8--7--8-8-7-8-8-8-|-----|

Gb|------------------------------------|------------------------------|
Db|----------------9-9-----------------|------------------------------|
Ab|-10-10-10-10-10-----0---------------|-7-7-7-7-7--5--7--7-7--7--5-7-|
Eb|----------------------5-5--5--5-5-5-|------------------------------|

Gb|------------------------------------|------------------------------|
Db|----------------9-9-----------------|------------------------------|
Ab|-10-10-10-10-10-----0---------------|-7-7-7-7-7--5--7--7-7--7--5-7-|
Eb|----------------------5-5--5--5-5-5-|------------------------------|


Chorus 2:
(1:46)
Gb|----------------------------|---------------------|
Db|----------------------------|---------------------|
Ab|----------------------------|---------------------|
Eb|-7--7--7-7-7-0-8--8-8-8-8-8-|-3-3-3-0-3-2-2-2-2-2-|

Gb|----------------------------|---------------------|
Db|----------------------------|---------------------|
Ab|----------------------------|---------------------|
Eb|-7--7--7-7-7-0-8--8-8-8-8-8-|-3-3-3-0-3-2-2-2-2-2-|

Guitar Solo:
(2:02)
Gb|---------------------------------|---------------------------------|
Db|---------------------------------|---------------------------------|
Ab|--5-5-5-5-5-5-5-5/7-7-7--7-7-7-7-|-3-3-3-3-3-3-3-0-3--3-3--3-3-3-3-|
Eb|---------------------------------|---------------------------------|

Gb|--------------------------------|-------------------------------|
Db|--------------------------------|-------------------------------|
Ab|--5-5-5-5-5-5-5-5/7-7-7-7-7-7-7-|-3-3-3-3-3-3-3-0-3-3-3-3-------|
Eb|--------------------------------|-------------------------0-3-0-|


Bridge:
(2:17)
Gb|---------------------------------------------|------------------------------|
Db|---------------------------------------------|------------------------------|
Ab|-/12-12-12-12-12-12-0-12--12-12--12-12-12-12-|-7-7-7---7-7---7--7---7---7---|
Eb|---------------------------------------------|-------0-----0------0---0---0-|

Gb|---------------------------------------------|------------------------------|
Db|---------------------------------------------|------------------------------|
Ab|-/12-12-12-12-12-12-0-12--12-12--12-12-12-12-|-7-7-7---7-7---7--7---7---7---|
Eb|---------------------------------------------|-------0-----0------0---0---0-|

Gb|---------------------------------------------|---------------------------|
Db|---------------------------------------------|---------------------------|
Ab|-/12-12-12-12-12-12-0-12--12-12--12-12-12-12-|--2-2--2-2---2-2---2-2-2---|
Eb|---------------------------------------------|-----------0-----0-------0-|

Gb|------------------------------|------------------------------------------|
Db|------------------------------|------------------------------------------|
Ab|--3-3-3---3-3---3-3---3-3-3-3-|--5-5-5---5---5--5-17--17-17--17-17-17-17-|
Eb|--------0-----0-----0---------|--------0---0-----------------------------|


Chorus 3:
(2:48)
Gb|----------------------------|---------------------|
Db|----------------------------|---------------------|
Ab|----------------------------|---------------------|
Eb|-7--7--7-7-7-0-8--8-8-8-8-8-|-3-3-3-0-3-2-2-2-2-2-|

Gb|----------------------------|-----------------------------------------|
Db|----------------------------|-----------------------------------------|
Ab|----------------------------|--------10-10-10---10--9--9-9--5-5-5-5-5-|
Eb|-7--7--7-7-7-0-8--8-8-8-8-8-|-7-8-10----------0-----------------------|

Gb|----------------------------|---------------------|
Db|----------------------------|---------------------|
Ab|----------------------------|---------------------|
Eb|-7--7--7-7-7-0-8--8-8-8-8-8-|-3-3-3-0-3-2-2-2-2-2-|

Gb|----------------------------|-----------------------------------------|
Db|----------------------------|-----------------------------------------|
Ab|----------------------------|--------10-10-10---10--9--9-9--5-5-5-5-5-|
Eb|-7--7--7-7-7-0-8--8-8-8-8-8-|-7-8-10----------0-----------------------|


Outro:
(3:18)
Gb|------------------------------------|------------------------------|
Db|----------------9-9-----------------|------------------------------|
Ab|-10-10-10-10-10-----0---------------|-7-7-7-7-7--5--7--7-7--7--5-7-|
Eb|----------------------5-5--5--5-5-5-|------------------------------|

Gb|------------------------------------|--------------------------------|
Db|----------------9-9-----------------|--------------------------------|
Ab|-10-10-10-10-10-----0---------------|-7-7-7-7-7--5--7--7-7--7--5-5-5-|
Eb|----------------------5-5--5--5-5-5-|--------------------------------|

Gb|------------------------------------|--------------------------------|
Db|----------------9-9-----------------|--------------------------------|
Ab|-10-10-10-10-10-----0---------------|-7-7-7-7-7--5--7--7-7--7--5-5-5-|
Eb|----------------------5-5--5--5-5-5-|--------------------------------|

Gb|-----------------------------|---------------|
Db|----------9-9----------------|----9~---------|
Ab|-10-10-10--------------------|-7~-7~---------|
Eb|--------------5-5-5-5--5-5-5-|--------5h7-0~-|


************************************

| b  Bend
| /  Slide up
| ~  Vibrato
| h  Hammer-on

↓ Add and view comments below ↓

What do you think about this song and these tabs?

Add your comments, questions, rant or a thumbs up below.

Almost there ...

Sign in to get your own page with links to favourite songs and more. You are just one click away...

Login with Facebook Login with Google