Log in

One click and you are in

Login with Facebook Login with Google

Why sign up and log in

Guitar Tabs Explorer
The Killers tabs for Smile like you mean it  solo

Smile Like You Mean It Solo tab - The Killers

The Killers tabs for Smile like you mean it  solo

Guitar tabs

This is jus the solo, it uses slight delay listen to the song a few times to get the timing
i havent bothered putting in the strings that arent used

e--14--14--14--14--15--15--15--15-----
b----15--15--15--15--15--15--15--15---


e----------------------------------
b-12--12--13--13--15--15-----------
g---12--12--12--12--12-------------


e-----------------------------15---15---15---15
b--^12--------------13-12--^15--^15--^15--^15--
g--^12---14-12---12---------------------------
d--^12---------14-----------------------------


e------------------------------------------
b---^15-----12------------------------------
g--------------14----------------------------

this is quite accurate so enjoy

Almost there ...

Sign in to get your own page with links to favourite songs and more. You are just one click away...

Login with Facebook Login with Google