Log in

One click and you are in

Login with Facebook Login with Google

Why sign up and log in

Guitar Tabs Explorer
The Killers bass tabs for Shadowplay

Bass tabs

Tuning: Standard
Difficulty: Intermediate

G|---------------------------------------|
D|--3333333333333333-5-------------------|
A|---------------------00000000000000----|
E|---------------------------------------|

1 part near the beginning it goes like this
G|------------------------------------------------------------------------|
D|----3~~---1~------------------------------------------------------------|
A|--------------0~~-------------------------------------------------------|
E|------------------------------------------------------------------------|

variation about 2:20 its pretty noticable
G|------------------------------------------------------------------------|
D|------33333333333333-5/7------------------------------------------------|
A|-------------------------00000000000000---------------------------------|
E|------------------------------------------------------------------------|

at about 2:25
G|-------------------------------------------------------------------------|
D|-------33333333333333-3/777----------------------------------------------|
A|---------------------------00000000000000--------------------------------|
E|-------------------------------------------------------------------------|

and if you want to (its not written but it sounds cool) you can play this during the
if you want to change it up abit.
G|-------------------------------------------------------------------------|
D|-----3333-5555-7777-9999-10101010-9999-10101010-99999999-----------------|
A|-------------------------------------------------------------------------|
E|-------------------------------------------------------------------------|

its very repetative, and simple, i cant believe nobody else had this
| /  slide up
|   slide down
| h  hammer-on
| p  pull-off
| ~  vibrato
| +  harmonic
| x  Mute note

↓ Add and view comments below ↓

What do you think about this song and these tabs?

Add your comments, questions, rant or a thumbs up below.

Almost there ...

Sign in to get your own page with links to favourite songs and more. You are just one click away...

Login with Facebook Login with Google