Log in

One click and you are in

Login with Facebook Login with Google

Why sign up and log in

Guitar Tabs Explorer
The Killers bass tabs for Runaways

Bass tabs

Album: Battle Born
Track: Runaways

Tuning: Standard tuning (EADG)

Updated 04/06/15
This is a tab of VintageBassline (ver 1) but in standard tuning.
Intro - no bass


Verse 1 - no bass until  ...and held my hand )
G|--------------------------------|--------------------------------|
D|--------------------------------|--------------------------------|
A|--------------------------------|-6------------------------------|
E|-2---------------6--------------|-----------------4--------------|

G|--------------------------------|--------------------------------|
D|--------------------------------|--------------------------------|
A|--------------------------------|--------------------------------|
E|-2---------------6--------------|-4-444-444-44444-4-444-444-44444|

G|--------------------------------|
D|--------------------------------|
A|--------------------------------|
E|-2-222-222-22222-2-222-222-22222|


Pre-chorus 1
G|--------------------------------|--------------------------------|
D|--------------------------------|--------------------------------|
A|--------------------------------|-------3-3-3-4-4----------------|
E|-4-4-4-6-6-6-6-6-2-2-2-1-1-1-1-1|-6-6-6-----------2-2-2-2-2-2-2-2|

G|--------------------------------|
D|--------------------------------|
A|--------------------------------|
E|-4------6--------2--------------|

Verse 2
G|--------------------------------|--------------------------------|
D|--------------------------------|--------------------------------|
A|--------------------------------|--------/4-4-4-4---------------3|
E|-4------6--------2--------------|-2---------------4---------4-6--|

G|--------------------------------|--------------------------------|
D|--------------------------------|--------------------------------|
A|-4----6-------------------------|--------/4-4-4-4----------------|
E|--------4----6---2-----2---2----|-2-2-2-2---------4-4-4-4-4-4-4-4|

G|--------------------------------|--------------------------------|
D|--------------------------------|--------------------------------|
A|--------------------------------|-6-6-6-6-6-6-6-6----------------|
E|-2-2-2-2-2-2-2-2-6-6-6-6-6-6-6-6|-----------------4-4-4-4-4-4-4-4|

G|--------------------------------|--------------------------------|
D|--------------------------------|--------------------------------|
A|--------------------------------|--------------------------------|
E|-2-2-2-2-2-2-2-2-6-6-6-6-6-6-6-6|-4-444-444-44444-4-444-444-44444|

G|--------------------------------|
D|--------------------------------|
A|--------------------------------|
E|-2-222-222-22222-2-222-222-22222|


Pre-chorus 2
G|--------------------------------|--------------------------------|
D|--------------------------------|--------------------------------|
A|--------------------------------|-------3-3-3-4-4----------------|
E|-4-4-4-6-6-6-6-6-2-2-2-1-1-1-1-1|-6-6-6-----------2-2-2-2-2-2-2-2|

G|--------------------------------|
D|--------------------------------|
A|--------------------------------|
E|-4-4-4-4-4-4-4-4-4-4-4-4-/16--16|


Chorus 2
G|--------------------------------|--------------------------------|
D|-----------------------4-----4--|--------------------------------|
A|-4------------------------------|---------4---------------------3|
E|---------4-------2---2-----2----|-2---------------4---------4-6--|

G|--------------------------------|--------------------------------|
D|------------------------4----4--|--------------------------------|
A|-4----6-------------------------|---------4----------------------|
E|--------4----6---2----2----2----|-2---------------4--------------|


Bridge
G|--------------------------------|--------------------------------|
D|--------------------------------|--------------------------------|
A|-----------------------------3-4|--------------------------------|
E|-1-1-1-1-1-1-1-1-6-6-6-6-6-6----|-2-2-2-2-2-2-2-2-2-2-2-2-2-2-2-2|

G|--------------------------------|--------------------------------|
D|--------------------------------|--------------------------------|
A|-4-4-4-4-4-4-4-4----------------|--------------------------------|
E|-----------------6-6-6-6-6-6-6-6|-4-4-4-4-4-4-4-4-2--------------|


Verse 3
G|--------------------------------|--------------------------------|
D|--------------------------------|--------------------------------|
A|-4------------------------------|---------4---------------------3|
E|---------4-------2--------------|-2---------------4---------4-6--|

G|--------------------------------|--------------------------------|
D|------------------------4----4--|--------------------------------|
A|-4----6-------------------------|---------4----------------------|
E|--------4----6---2----2----2----|-2---------------4-4-4-4-4-4-4-4|

G|--------------------------------|--------------------------------|
D|--------------------------------|--------------------------------|
A|--------------------------------|--------------------------------|
E|-2-2-2-2-2-2-2-2-2-2-2-1-2-1-2-4|-4-444-444-44444-4-444-444-44444|

G|--------------------------------|
D|--------------------------------|
A|--------------------------------|
E|-2-222-222-22222-2-222-222-22222|


Pre-chorus 3
G|--------------------------------|--------------------------------|
D|--------------------------------|--------------------------------|
A|--------------------------------|--------------------------------|
E|-4-4-4-6-6-6-6-6-2-2-2-1-1-1-1-1|-4-4-4-6-6-6-6-6-2-2-2-1-1-1-1-1|

G|--------------------------------|--------------------------------|
D|--------------------------------|--------------------------------|
A|--------------------------------|--------------------------------|
E|-4-4-4-4-4-4-4-4-4-4-4-4-4-4-4-4|-4-4-4-4-4-4-4-4-4-4-4-/-16--16-|


Chorus 2
G|--------------------------------|--------------------------------|
D|-----------------------4-----4--|--------------------------------|
A|-4------------------------------|---------4---------------------3|
E|---------4-------2---2-----2----|-2---------------4---------4-6--|

G|--------------------------------|--------------------------------|
D|------------------------4----4--|--------------------------------|
A|-4----6-------------------------|---------4---------------------3|
E|--------4----6---2----2----2----|-2---------------4---------4-6--|

G|--------------------------------|--------------------------------|
D|-----------------4-4-4-4-4-3-4-4|-4-4-4-3-3-3--------------------|
A|-4-4-4-6-6-6-6-6----------------|-------------6-6---------------3|
E|--------------------------------|-----------------4-4-4-4-4-4-6--|

G|--------------------------------|--------------------------------|
D|-----------------4-4-4-4-4-3-4-4|-4-4-4-3-3-3--------------------|
A|-4-4-4-6-6-6-6-6----------------|-------------6-6----------------|
E|--------------------------------|-----------------4-4-4-4-4-4-4-4|

G|--------------------------------|
D|--------------------------------|
A|--------------------------------|

↓ Add and view comments below ↓

What do you think about this song and these tabs?

Add your comments, questions, rant or a thumbs up below.

Almost there ...

Sign in to get your own page with links to favourite songs and more. You are just one click away...

Login with Facebook Login with Google