Log in

One click and you are in

Login with Facebook Login with Google

Why sign up and log in

Guitar Tabs Explorer
The Killers guitar tabs for Run for cover

Guitar tabs

Watch my cover: https://www.youtube.com/watch v=eErjNY-EHYE


Intro:
e|--------------------------------------------------------------------------------------------------|
B|--------------------------------------------------------------------------------------------------|
G|-3--3--3--3--3--3--3--3-7--7--7--7--7--7--7--7-10-10-10-10-10-10-10-10-/12-12-12-12-12-12-12-12---|
D|--------------------------------------------------------------------------------------------------|
A|-1--1--1--1--1--1--1--1-5--5--5--5--5--5--5--5-8--8--8--8--8--8--8--8--/10-10-10-10-10-10-10-10---|
E|--------------------------------------------------------------------------------------------------|

e|--------------------------------------------------------------------------------------------------|
B|--------------------------------------------------------------------------------------------------|
G|-3--3--3--3--3--3--3--3-7--7--7--7--7--7--7--7-10-10-10-10-10-10-10-10-9--9--9--9--9--9--9--9-----|
D|-----------------------------------------------------------------------10-10-10-10-10-10-10-10----|
A|-1--1--1--1--1--1--1--1-5--5--5--5--5--5--5--5-8--8--8--8--8--8--8--8--10-10-10-10-10-10-10-10----|
E|--------------------------------------------------------------------------------------------------|

e|---------------------------------------------------------------------------|
B|-----------10-----------------10------------------------10-----------------|
G|-10------7--------7-10------7-------------10-------------------------------|
D|---------------------------------------------------------------------------|
A|---------------------------------------------------------------------------|
E|---------------------------------------------------------------------------|


Verse:
No guitar in verse 1


Chorus:

e|---------------------------------------------------------------------------|
B|---------------------------------------------------------------------------|
G|-3-3-3--3-3-3---7-7-7--7-7-7-----------------------------------------------|
D|-3-3-3--3-3-3---7-7-7--7-7-7--3-3-3--3-3-3--5-5-5--5-5-5-------------------|
A|-1-1-1--1-1-1---5-5-5--5-5-5--3-3-3--3-3-3--5-5-5--5-5-5-------------------|
E|------------------------------1-1-1--1-1-1--3-3-3--3-3-3-------------------|

e|---------------------------------------------------------------------------|
B|---------------------------------------------------------------------------|
G|-3-3-3--3-3-3---7-7-7--7-7-7----------------5-5-5--5-5-5-------------------|
D|-3-3-3--3-3-3---7-7-7--7-7-7--3-3-3--3-3-3--5-5-5--5-5-5-------------------|
A|-1-1-1--1-1-1---5-5-5--5-5-5--3-3-3--3-3-3--3-3-3--3-3-3-------------------|
E|------------------------------1-1-1--1-1-1---------------------------------|

e|---------------------------------------------------------------------------|
B|---------------------------------------------------------------------------|
G|-2-2-2--2-2-2--3-3-3--3-3-3---5-5-5--5-5-5--7-7-7--7-7-7-------------------|
D|-2-2-2--2-2-2--3-3-3--3-3-3---5-5-5--5-5-5--7-7-7--7-7-7-------------------|
A|-0-0-0--0-0-0--1-1-1--1-1-1---3-3-3--3-3-3--5-5-5--5-5-5-------------------|
E|---------------------------------------------------------------------------|

e|---------------------------------------------------------------------------|
B|---------------------------------------------------------------------------|
G|-3-3-3--3-3-3--3-3-3--3-3-3--5-5-5--5-5-5--5-5-5--5-5-5--------------------|
D|-3-3-3--3-3-3--3-3-3--3-3-3--5-5-5--5-5-5--5-5-5--5-5-5--------------------|
A|-1-1-1--1-1-1--1-1-1--1-1-1--3-3-3--3-3-3--3-3-3--3-3-3--------------------|
E|---------------------------------------------------------------------------|

Verse 2:
e|---------------------------------------------------------------------------|
B|-8----8-----------8--------8---------8-------8--------8-----8--------------|
G|-5----5-----------5--------5---------5-------5--------5-----5--------------|
D|---------------------------------------------------------------------------|
A|---------------------------------------------------------------------------|
E|---------------------------------------------------------------------------|

e|---------------------------------------------------------------------------|
B|-8----8-----------8--------8---------8-------8--------8-----8--------------|
G|-5----5-----------5--------5---------5-------5--------5-----5--------------|
D|---------------------------------------------------------------------------|
A|---------------------------------------------------------------------------|
E|---------------------------------------------------------------------------|


Chorus:
e|-----------------------------------------------------------------------------------|
B|-----------------------------------------------------------------------------------|
G|---------------------------------------------------------------5-5-5-----5---------|
D|---5-5-5--5-7-5--3----------------------------------------------------7-----5-3----|
A|--------------------------------------5------/8--7---------------------------------|
E|-----------------------3---------3h5-----------------5--6--8---------------------8-|


Bridge:
e|--17--------17-----------------15--------15-------17-------17--------------|
B|---------------18---------18----------------------------------18-------18--|
G|---------------------------------------------------------------------------|
D|---------------------------------------------------------------------------|
A|---------------------------------------------------------------------------|
E|---------------------------------------------------------------------------|

e|-----15/17-----------------------------------------------------------------|
B|-15------------------------------------------------------------------------|
G|----------------------10--9--------10---------10-9------10-9---------------|
D|------------------------------7--------7h8---------7----------5------------|
A|---------------------------------------------------------------------------|
E|---------------------------------------------------------------------------|


Chorus:
e|-----------------------------------------------------------------------------------|
B|-----------------------------------------------------------------------------------|
G|---------------------------------------------------------------5-5-5-----5---------|
D|---5-5-5--5-7-5--3----------------------------------------------------7-----5-3----|
A|--------------------------------------5------/8--7---------------------------------|
E|-----------------------3---------3h5-----------------5--6--8---------------------8-|


Outro Solo:

e|----------------------------------------------------------------------------|
B|----------------------------------------------------------------------------|
G|--5-5-5-----5-5-5--5-----5-5-5--5/7-5---------------5-5-5---5-5-5-5----5----|
D|---------3-----------3-----------------7--7--5--3---------3---------3----7--|
A|----------------------------------------------------------------------------|
E|----------------------------------------------------------------------------|

e|----------------------------------------------------------------------------|
B|----------------------------------------------------------------------------|
G|----------------------------------------------------------------------------|
D|--7-7--7--5---3--3--3-------------------------------------------------------|
A|-----------------------3h5-5--5--5--5p0--1-1-1--1-3-3--3---7--8-8-8---------|
E|----------------------------------------------------------------------------|

e|---------------------------------------------------------------------------|
B|---------------------------------------------------------------------------|
G|-5-------------------------------------------------------------------------|
D|----7--7--5--5--3--3---0---3----5---5-5h7---7---7---7b8-pb8-pb8-pb8\-------|
A|---------------------------------------------------------------------------|
E|---------------------------------------------------------------------------|


************************************

| h   Hammer-on
| p   Pull-off
| b   Bend
| br  Bend release
| pb  Pre-bend
| /   Slide up
| \   Slide down

Other versions of Run For Cover

Run for coverChords

↓ Add and view comments below ↓

What do you think about this song and these tabs?

Add your comments, questions, rant or a thumbs up below.

Almost there ...

Sign in to get your own page with links to favourite songs and more. You are just one click away...

Login with Facebook Login with Google