Log in

One click and you are in

Login with Facebook Login with Google

Why sign up and log in

Guitar Tabs Explorer
The Killers bass tabs for Run for cover

Bass tabs

Watch my cover: https://www.youtube.com/watch v=eErjNY-EHYE


Intro: starts at 0:23
G|---------------------------------------------------------------------------|
D|---------------------------------------------------------------------------|
A|-1-1-1-1--1-1-1-1--1-1-1-1--1-1-1-1---3-3-3-3--3-3-3-3--5-5-5-5--5-5-5-5---|
E|---------------------------------------------------------------------------|

G|---------------------------------------------------------------------------|
D|---------------------------------------------------------------------------|
A|-1-1-1-1--1-1-1-1--1-1-1-1--1-1-1-1---3-3-3-3--3-3-3-3--3-3-3-3--3-3-3-3---|
E|---------------------------------------------------------------------------|
Verse:
G|---------------------------------------------------------------------------|
D|---------------------------------------------------------------------------|
A|---------------------------------------------------------------------------|
E|-1-1-1-1--1-1-1-1--3-3-3-3--3-3-3-3--5-5-5-5--5-5-5-5--3-3-3-3--3-3-3-3----|

G|---------------------------------------------------------------------------|
D|---------------------------------------------------------------------------|
A|-------------------------------------3-3-3-3--3-3-3-3--3-3-3-3--3-3-3-3----|
E|-1-1-1-1--1-1-1-1--3-3-3-3--3-3-3-3----------------------------------------|


PreChorus:
G|---------------------------------------------------------------------------|
D|---------------------------------------------------------------------------|
A|-5-5-5-5--5-5-5-5--7-7-7-7--7-7-7-7----------------------------------------|
E|-------------------------------------1-1-1-1--1-1-1-1--3-3-3-3--3-3-3-3----|

G|---------------------------------------------------------------------------|
D|---------------------------------------------------------------------------|
A|-1-1-1-1--1-1-1-1--3-3-3-3--3-3-3-3----------------------------------------|
E|-------------------------------------1-1-1-1--1-1-1-1--1-1-1-1--1-1-1-1----|

Chorus:
G|---------------------------------------------------------------------------|
D|---------------------------------------------------------------------------|
A|-1-1-1-1--1-1-1-1--5-5-5-5--5-5-5-5----------------------------------------|
E|-------------------------------------1-1-1-1--1-1-1-1--3-3-3-3--3-3-3-3----|

G|---------------------------------------------------------------------------|
D|---------------------------------------------------------------------------|
A|-1-1-1-1--1-1-1-1--5-5-5-5--5-5-5-5--------------------3-3-3-3--3-3-3-3----|
E|-------------------------------------1-1-1-1--1-1-1-1----------------------|

G|---------------------------------------------------------------------------|
D|---------------------------------------------------------------------------|
A|-0-0-0-0--0-0-0-0--1-1-1-1--1-1-1-1--3-3-3-3--3-3-3-3--5-5-5-5--5-5-5-5----|
E|---------------------------------------------------------------------------|

G|---------------------------------------------------------------------------|
D|---------------------------------------------------------------------------|
A|-1-1-1-1--1-1-1-1--1-1-1-1--1-1-1-1--3-3-3-3--3-3-3-3--3-3-3-3--3-3-3-3----|
E|---------------------------------------------------------------------------|


Verse:
G|---------------------------------------------------------------------------|
D|---------------------------------------------------------------------------|
A|---------------------------------------------------------------------------|
E|-1-1-1-1--1-1-1-1--3-3-3-3--3-3-3-3--5-5-5-5--5-5-5-5--3-3-3-3--3-3-3-3----|

G|---------------------------------------------------------------------------|
D|---------------------------------------------------------------------------|
A|-------------------------------------3-3-3-3--3-3-3-3--3-3-3-3--3-3-3-3----|
E|-1-1-1-1--1-1-1-1--3-3-3-3--3-3-3-3----------------------------------------|


PreChorus:
G|---------------------------------------------------------------------------|
D|---------------------------------------------------------------------------|
A|-5-5-5-5--5-5-5-5--7-7-7-7--7-7-7-7----------------------------------------|
E|-------------------------------------1-1-1-1--1-1-1-1--3-3-3-3--3-3-3-3----|

G|---------------------------------------------------------------------------|
D|---------------------------------------------------------------------------|
A|-1-1-1-1--1-1-1-1--1-1-1-1--1-1-1-1--3-3-3-3--3-3-3-3--3-3-3-3--3-3-3-3----|
E|---------------------------------------------------------------------------|


Chorus:
G|---------------------------------------------------------------------------|
D|---------------------------------------------------------------------------|
A|-1-1-1-1--1-1-1-1--5-5-5-5--5-5-5-5----------------------------------------|
E|-------------------------------------1-1-1-1--1-1-1-1--3-3-3-3--3-3-3-3----|

G|---------------------------------------------------------------------------|
D|---------------------------------------------------------------------------|
A|-1-1-1-1--1-1-1-1--5-5-5-5--5-5-5-5--------------------3-3-3-3--3-3-3-3----|
E|-------------------------------------1-1-1-1--1-1-1-1----------------------|

G|---------------------------------------------------------------------------|
D|---------------------------------------------------------------------------|
A|-0-0-0-0--0-0-0-0--1-1-1-1--1-1-1-1--3-3-3-3--3-3-3-3--5-5-5-5--5-5-5-5----|
E|---------------------------------------------------------------------------|

G|---------------------------------------------------------------------------|
D|---------------------------------------------------------------------------|
A|-1-1-1-1--1-1-1-1--1-1-1-1--1-1-1-1--3-3-3-3--3-3-3-3--3-3-3-3--3-3-3-3----|
E|---------------------------------------------------------------------------|


Bridge:
G|---------------------------------------------------------------------------|
D|---------------------------------------------------------------------------|
A|-0-----------------1-----------------5-----------------1-------------------|
E|---------------------------------------------------------------------------|

G|---------------------------------------------------------------------------|
D|---------------------------------------------------------------------------|
A|-0-----------------1-----------------5-----------------3-------------------|
E|---------------------------------------------------------------------------|

G|---------------------------------------------------------------------------|
D|---------------------------------------------------------------------------|
A|-1-----------------------------------5-5-5-5--5-5-5-5----------------------|
E|-------------------------------------------------------1-1-1-1--1-1-1-1----|


Chorus:
G|---------------------------------------------------------------------------|
D|---------------------------------------------------------------------------|
A|-------------------5-5-5-5--5-5-5-5----------------------------------------|
E|-------------------------------------1-1-1-1--1-1-1-1--3-3-3-3--3-3-3-3----|

G|---------------------------------------------------------------------------|
D|---------------------------------------------------------------------------|
A|-1-1-1-1--1-1-1-1--5-5-5-5--5-5-5-5--------------------3-3-3-3--3-3-3-3----|
E|-------------------------------------1-1-1-1--1-1-1-1----------------------|

G|---------------------------------------------------------------------------|
D|---------------------------------------------------------------------------|
A|-0-0-0-0--0-0-0-0--1-1-1-1--1-1-1-1--3-3-3-3--3-3-3-3--5-5-5-5--5-5-5-5----|
E|---------------------------------------------------------------------------|

G|---------------------------------------------------------------------------|
D|---------------------------------------------------------------------------|
A|-1-1-1-1--1-1-1-1--1-1-1-1--1-1-1-1--3-3-3-3--3-3-3-3--3-3-3-3--3-3-3-3----|
E|---------------------------------------------------------------------------|


Outro:
G|---------------------------------------------------------------------------|
D|---------------------------------------------------------------------------|
A|-1-1-1-1--1-1-1-1--5-5-5-5--5-5-5-5----------------------------------------|
E|-------------------------------------1-1-1-1--1-1-1-1--3-3-3-3--3-3-3-3----|

G|---------------------------------------------------------------------------|
D|---------------------------------------------------------------------------|
A|-1-1-1-1--1-1-1-1--5-5-5-5--5-5-5-5--------------------3-3-3-3--3-3-3-3----|
E|-------------------------------------1-1-1-1--1-1-1-1----------------------|

G|---------------------------------------------------------------------------|
D|---------------------------------------------------------------------------|
A|-1-1-1-1--1-1-1-1--1-1-1-1--1-1-1-1--3-3-3-3--3-3-3-3--5-5-5-5--5-5-5-5----|
E|---------------------------------------------------------------------------|

G|---------------------------------------------------------------------------|
D|---------------------------------------------------------------------------|
A|-1-1-1-1--1-1-1-1--1-1-1-1--1-1-1-1--3-3-3-3--3-3-3-3--3-3-3-3--3-3-3-3----|

↓ Add and view comments below ↓

What do you think about this song and these tabs?

Add your comments, questions, rant or a thumbs up below.

Almost there ...

Sign in to get your own page with links to favourite songs and more. You are just one click away...

Login with Facebook Login with Google