Log in

One click and you are in

Login with Facebook Login with Google

Why sign up and log in

Guitar Tabs Explorer
The Killers bass tabs for My list

Bass tabs

Intro/Verse:
F#|------------------|
C#|------------------|
G#|------------------|
D#|-9----9----9----9-|

"Cause sometimes it gets hard and don't she know "
F#|---|
C#|---|
G#|---|
D#|-6-|
Chorus part 1:(2x)
F#|-----------------------------------------------------------------------------|
C#|-----------------------------------------------------------8--8h10p8---------|
G#|-----------------------------------8--9--9h11p9--8--8h9p8-------------11--11-|
D#|-4/9-9-9-9--9-9-9-9--9-9-9-9--9-9-9------------------------------------------|


Chorus part 2:(1x)
F#|--------------------------------------------------------------------------------|
C#|--------------------------------------------------------------8--8h10p8---------|
G#|--------------------------------------8--9--9h11p9--8--8h9p8-------------11--11-|
D#|-4/9-9-9---4/9-9-9---4/9-9-9---4/9-9-9------------------------------------------|


Chorus part 3:(1x)
F#|----------------------------------------------------------------------------|
C#|----------------------------------------------------------8--8h10p8---------|
G#|----------------------------------8--9--9h11p9--8--8h9p8-------------11--11-|
D#|-4/9999---4/9999---4/9999---4/9999------------------------------------------|

   "When your heart is not able"
F#|-----------------------------------------------------------------------------------|
C#|-----------------------------------------------------------------------------------|
G#|-13-13-13-13-13-13-13-13-9-9-9-9-9-9-9-9-9-----------------11-11-11-11-11-11-11-11-|
D#|-------------------------------------------9-9-9-9-9-9-9-9-------------------------|

   "And your prayers they’re not fables"
F#|-----------------------------------------------------------------------------|
C#|-----------------------------------------------------------------------------|
G#|-13-13-13-13-13-13-13-13-9-9-9-9-9-9-9-9-9------------------------4/11-11-11-|
D#|-------------------------------------------9-9-9-9-9-9-9-9-4-4-4-4-----------|

   "Let me show (let me show you)..."
F#|-----------------------------------------------------------------------------|
C#|-----------------------------------------------------------------------------|
G#|-----------------8-8-8-8-8-8-8-8-8-9-9-9-9-9-9-9-9-9-13-13-13-13-13-13-13-13-|
D#|-9-9-9-9-9-9-9-9-------------------------------------------------------------|

   "Let me show you how much I care"
F#|-------------------------------------------------|
C#|-------------------------------------------------|
G#|-----------------8-8-8-8-8-8-8-8-8--9--11--13----|
D#|-9-9-9-9-9-9-9-9-------------------------------9-|


Outro:
F#|--------------------------------------------|
C#|--------------------------------------------|
G#|------8----9--------------8----9--11--13----|
D#|-9--------------9----9--------------------9-|


Outro:
F#|------------------|
C#|------------------|
G#|------------------|
D#|-9----9----9----9-|

↓ Add and view comments below ↓

What do you think about this song and these tabs?

Add your comments, questions, rant or a thumbs up below.

Almost there ...

Sign in to get your own page with links to favourite songs and more. You are just one click away...

Login with Facebook Login with Google