Log in

One click and you are in

Login with Facebook Login with Google

Why sign up and log in

Guitar Tabs Explorer
The Killers guitar tabs for Mr brightside

Intro

------------------------------
 Mr. Brightside ~ The Killers
------------------------------
Album: Hot Fuss         (2004)

Tabbed By: Russcool


Tuning: Half-Step Down

Part: Intro


Eb|--------------0-------------|--------------0-------------|
Bb|-----------------17---------|-----------------17---------|
Gb|--------19----------19------|--------19----------19------|
Db|-----16----16----------0----|-----16----16----------0----|
Ab|--17------------------------|--16------------------------|
Eb|----------------------------|----------------------------|


Eb|--------------0-------------|--------------0-------------|
Bb|-----------------17---------|-----------------17---------|
Gb|--------19----------19------|--------19----------19------|
Db|-----16----16----------16---|-----16----16----------0----|
Ab|----------------------------|----------------------------|

Other versions of Mr Brightside

Mr brightsideChords
Mr brightside (Ver. 2)Chords
Mr brightside acousticChords
Mr brightside acoustic (Ver. 2)Chords
Mr brightside acousticTabs

↓ Add and view comments below ↓

What do you think about this song and these tabs?

Add your comments, questions, rant or a thumbs up below.

Almost there ...

Sign in to get your own page with links to favourite songs and more. You are just one click away...

Login with Facebook Login with Google