Log in

One click and you are in

Login with Facebook Login with Google

Why sign up and log in

Guitar Tabs Explorer
The Killers guitar chords for Mr brightside acoustic (Ver. 2)

Mr Brightside Acoustic chords by The Killers (Ver. 2)

The Killers guitar chords for Mr brightside acoustic (Ver. 2)

Guitar chords with lyrics

Afine a 1ª corda (E4) em A chord diagramEb MajorEb para a tab dar certo


Intro:

E|----------0-----------------0-----------------0-----------------0--------|
B|------2-----2---2-------2-----2---2-------2-----2---2-------2-----2---2--|
G|-------------------------------------------------------------------------|
D|----3---3-----3-------3---3-----3-------3---3-----3-------3---3-----3----|
A|--4-----------------3----------------------------------------------------|
E|--------------------------------------2-----------------2----------------|
Verse:
I'm coming out of my cage And I've been doing just fine
Gotta gotta gotta be down Because I want it all
It started out with a kiss, How did it end up like this
It was only a kiss, it was only a kiss
Now I'm falling asleep, And she's calling a cab
While he's having a smoke, And she's taking a drag
Now they're going to bed, And my stomach is sick
And it's all in my head, But she's touching his

E|----------0-----------------0-----------------0-----------------0--------|
B|------2-----2---2-------2-----2---2-------2-----2---2-------2-----2---2--|
G|-------------------------------------------------------------------------|
D|----3---3-----3-------3---3-----3-------3---3-----3-------3---3-----3----|
A|--4-----------------3----------------------------------------------------|
E|--------------------------------------2-----------------2----------------|
     chest Now, he takes off her dress now, let me go
E|----------0-----------------0-----------------0-----------------0--------|
B|------2-----2---2-------2-----2---2-------2-----2---2-------2-----2---2--|
G|-------------------------------------------------------------------------|
D|----3---3-----3-------3---3-----3-------3---3-----3-------3---3-----3----|
A|--1-----------------1----------------------------------------------------|
E|--------------------------------------4-----------------4----------------|

E|----------0-----------------0-----------------0-----------------0--------|
B|------2-----2---2-------2-----2---2-------2-----2---2-------2-----2---2--|
G|-------------------------------------------------------------------------|
D|----3---3-----3-------3---3-----3-------3---3-----3-------3---3-----3----|
A|-------------------------------------------------------------------------|
E|--2-----------------2-----------------2-----------------2----------------|
       I just can't look its killing me
E|-----------0-----------------0-----------------0----------------0--------|
B|-------2-----2---2-------2-----2---2-------2-----2---2------2-----2---2--|
G|-----3---3-----3-------3---3-----3-------3---3-----3------3---3-----3----|
D|-------------------------------------------------------------------------|
A|---1-----------------1-----------------1----------------1----------------|
E|-------------------------------------------------------------------------|
      And taking control
E|-----------0-----------------0-----------------0----------------0--------|
B|-------2-----2---2-------2-----2---2-------2-----2---2------2-----2---2--|
G|-----3---3-----3-------3---3-----3-------3---3-----3------3---3-----3----|
D|-------------------------------------------------------------------------|
A|-------------------------------------------------------------------------|
E|---2-----------------2-----------------2----------------2----------------|


Chorus:
Jealousy, turning saints into the sea
Swimming through sick lullabies
Choking on your alibis
But it's just the price I pay
Destiny is calling me
Open up my eager eyes
'Cause I'm Mr Brightside

E|------------2--------------------2---------------------------------------------|
B|-------2-------2---2--------2------2---2-----------6---------------------------|
G|-----------------------------------------------6-----6---6---------------------|
D|-----3---3-------3--------4---4------4-------6---6-----6-----------------------|
A|--4--------------------4------------------4-----------------4-4--3-3--1-1--3-3-|

Other versions of Mr Brightside Acoustic

Mr brightside acousticChords
Mr brightside acousticTabs

↓ Add and view comments below ↓

What do you think about this song and these chords?

Add your comments, questions, rant or a thumbs up below.

Almost there ...

Sign in to get your own page with links to favourite songs and more. You are just one click away...

Login with Facebook Login with Google