Log in

One click and you are in

Login with Facebook Login with Google

Why sign up and log in

Guitar Tabs Explorer
The Killers bass tabs for Mr. brightside

Bass tabs

Band: The Killers


Intro:
G|----------------------|
D|----------------------| x1
A|--4~---3~-------------|
E|-----------2~--2~----|
Verse:
G|-----------------------------------------------------------|
D|-----------------------------------------------------------| x3
A|--4-4-4-4-4-4-4-4-3-3-3-3-3-3-3-3--------------------------|
E|----------------------------------2-2-2-2-2-2-2-2-2-2-2-2--|

G|-------------------------------------------------------------------|
D|-------------------------------------------------------------------| x1
A|--4-4-4-4-4-4-4-4-3-3-3-3-3-3-3-3/9-9-9-9-9-9-9-9-9-9-9-9-9-9-9-9--|
E|-------------------------------------------------------------------|


Pre Chorus:
G|--------------------------------------------------------------------------------|
D|---------------------------------------------------------------------------------
A|--------------/8-6-4--------------/8--6-4--------------/6--4-3------------3--4-6|
E|--6-6-6-6-6-6---------4-4-4-4-4-4---------2-2-2-2-2-2---------2-2-2-2-2-2-------|

G|----------------------------------------------------------------------------------|
D|----------------------------------------------------------------------------------|
A|----------------/8-6-4---------------/8-6-4--------------------------/9-9-9-9-9-9-|
E|6-6-6-6-6-6-6-6--------4-4-4-4-4-4-4-4-----1h2222-1h2222-1h222-1h22222------------|


Chorus:
G|-------------------------------------------------------------------|
D|-------------------4-4-4-4-4-4-4-4----------------------------------| x2
A|--4-4-4-4-4-4-4-4--------------------------------------------------|
E|-----------------------------------6-6-6-6-6-6-6-6-4-4-4-4-4-4-4-4--|

G|----------------------------------------------------------------------------------|
D|------------------4-4-4-4-4-4-4-4/8-8-8-8-8-8-8-8-8-6-6-6-6-6-6-6-6--| x1
A|--4-4-4-4-4-4-4-4-----------------------------------------------------------------|
E|----------------------------------------------------------------------------------|

G|-------------------------------------------------------------------|
D|-------------------4-4-4-4-4-4-4-4----------------------------------| x3
A|--4-4-4-4-4-4-4-4--------------------------------------------------|
E|-----------------------------------6-6-6-6-6-6-6-6-4-4-4-4-4-4-4-4--|

Verse:
G|-------------------------------------------------------------------|
D|-------------------------------------------------------------------| x1
A|--4-4-4-4-4-4-4-4-3-3-3-3-3-3-3-3----------------------------------|
E|-----------------------------------2-2-2-2-2-2-2-2-2-2-2-2-2-2-2-2--|

G|------------------------------------|
D|------------------------------------| x1
A|--4-4-4-4-4-4-4-4-3-3-3-3-3-3-3-3---|
E|----------------------------------2-|

G|-------------------------------------------------------------------|
D|-------------------------------------------------------------------| x1
A|--4-4-4-4-4-4-4-4-3-3-3-3-3-3-3-3----------------------------------|
E|----------------------------------2-2-2-2-2-2-2-2-2-2-2-2-2-2-2-2--|

G|-------------------------------------------------------------------|
D|-------------------------------------------------------------------| x1
A|--4-4-4-4-4-4-4-4-3-3-3-3-3-3-3-3/9-9-9-9-9-9-9-9-9-9-9-9-9-9-9-9--|
E|-------------------------------------------------------------------|


Pre Chorus:
G|----------------------------------------------------------------------------------|
D|--------------------------------------------------------------------------------|
A|--------------/8-6-4-------------/8-6-4--------------/6--4-3-----------3--4-6--|
E|--6-6-6-6-6-6--------4-4-4-4-4-4--------2-2-2-2-2-2---------2-2-2-2-2-2------|


G|----------------------------------------------------------------------------------|
D|----------------------------------------------------------------------------------|
A|----------------/8--6-4---------------/8--6-4------------------------/9-9-9-9-9-9-|
E|6-6-6-6-6-6-6-6--------4-4-4-4-4-4-4-4-------1h22221h222221h22221h222-------------|


Verse
G|-------------------------------------------------------------------|
D|---------------------4-4-4-4-4-4-4-4----------------------------------| x2
A|--4-4-4-4-4-4-4-4--------------------------------------------------|
E|------------------------------------------6-6-6-6-6-6-6-6-4-4-4-4-4-4-4-4--|

G|--------------------------------------------------------------------------------|
D|------------------4-4-4-4-4-4-4-4/8-8-8-8-8-8-8-8-8-6-6-6-6-6-6-6-6--| x1
A|--4-4-4-4-4-4-4-4-----------------------------------------------------------------|
E|----------------------------------------------------------------------------------|


Verse
G|-------------------------------------------------------------------|
D|-------------------4-4-4-4-4-4-4-4----------------------------------| x1
A|--4-4-4-4-4-4-4-4--------------------------------------------------|
E|-----------------------------------6-6-6-6-6-6-6-6-4-4-4-4-4-4-4-4--|


Bridge
G|--10---------------11---------------10---------------8------------------|x2
D|--11---------------11----------------8---------------6------------------|
A|------------------------------------------------------------------------|
E|------------------------------------------------------------------------|


Verse
G|-------------------------------------------------------------------|
D|---------------------4-4-4-4-4-4-4-4----------------------------------| x4
A|--4-4-4-4-4-4-4-4--------------------------------------------------|
E|------------------------------------6-6-6-6-6-6-6-6-4-4-4-4-4-4-4-4--|

Outro:
G|------------|
D|------------|
A|------6~--4|
E|-----4~-----|

Play and rate

Also when you play the 1h2222-1h2222 I didn't put them all in but you should do it
about 8 times and when I play the verse I usually do 2222222222-1h22222222

↓ Add and view comments below ↓

What do you think about this song and these tabs?

Add your comments, questions, rant or a thumbs up below.

Almost there ...

Sign in to get your own page with links to favourite songs and more. You are just one click away...

Login with Facebook Login with Google