Log in

One click and you are in

Login with Facebook Login with Google

Why sign up and log in

Guitar Tabs Explorer
The Killers bass tabs for Mister brightside

Bass tabs

Intro (Start right after "Because I want it all"):

G |-6-6-6-6-6-6-6-6-|-5-5-5-5-5-5-5-5-|-----------------|-----------------|
D |-----------------|-----------------|-4-4-4-4-4-4-4-4-|-4-4-4-4-4-4-4-4-|
A |-----------------|-----------------|-----------------|-----------------|
E |-----------------|-----------------|-----------------|-----------------|
    1 & 2 & 3 & 4 &   1 & 2 & 3 & 4 &   1 & 2 & 3 & 4 &   1 & 2 & 3 & 4 &
Verse 1:

G |-----------------|-----------------|-----------------|-----------------|
D |-----------------|-----------------|-----------------|-----------------|
A |-4-4-4-4-4-4-4-4-|-3-3-3-3-3-3-3-3-|-----------------|-----------------|
E |-----------------|-----------------|-2-2-2-2-2-2-2-2-|-2-2-2-2-2-2-2-2-|
    1 & 2 & 3 & 4 &   1 & 2 & 3 & 4 &   1 & 2 & 3 & 4 &   1 & 2 & 3 & 4 &

G |-----------------|-----------------|-----------------|-----------------|
D |-----------------|-----------------|-4-4-4-4-4-4-4-4-|-4-4-4-4-4-4-4-4-|
A |-4-4-4-4-4-4-4-4-|-3-3-3-3-3-3-3-3-|-----------------|-----------------|
E |-----------------|-----------------|-----------------|-----------------|
    1 & 2 & 3 & 4 &   1 & 2 & 3 & 4 &   1 & 2 & 3 & 4 &   1 & 2 & 3 & 4 &


Pre-Chorus:

G |-----------------|-----------------|-----------------|-----------------|
D |-----------------|-----------------|-----------------|-----------------|
A |-----------------|-8-----6-----4---|-----------------|-8-----6-----4---|
E |-6---6---6---6---|-----------------|-4---4---4---4---|-----------------|
    1 & 2 & 3 & 4 &   1 & 2 & 3 & 4 &   1 & 2 & 3 & 4 &   1 & 2 & 3 & 4 &

G |-----------------|-----------------|-----------------|-----------------|
D |-----------------|-----------------|-----------------|-----------------|
A |-----------------|-6-----4-----3---|-----------------|-1-----3-----4---|
E |-2---2---2---2---|-----------------|-2---2---2---2---|-----------------|
    1 & 2 & 3 & 4 &   1 & 2 & 3 & 4 &   1 & 2 & 3 & 4 &   1 & 2 & 3 & 4 &

Chorus:

G |-----------------|-----------------|-----------------|-----------------|
D |-----------------|-----------------|-----------------|-----------------|
A |-----------------|-8-----6-----4---|-----------------|-8-----6-----4---|
E |-6---6---6---6---|-----------------|-4---4---4---4---|-----------------|
    1 & 2 & 3 & 4 &   1 & 2 & 3 & 4 &   1 & 2 & 3 & 4 &   1 & 2 & 3 & 4 &

G |-----------------|-----------------|-----------------|-----------------|
D |-----------------|-----------------|-----------------|-----------------|
A |-----------------|-----------------|-----------------|---4-4-4-4-4-4-4-|
E |-1-2-2-2-2-2-2-2-|-1-2-2-2-2-2-2-2-|-1-2-2-2-1-2-2-2-|-----------------|
    1 & 2 & 3 & 4 &   1 & 2 & 3 & 4 &   1 & 2 & 3 & 4 &   1 & 2 & 3 & 4 &

G |-----------------|-----------------|-----------------|-----------------|
D |-----------------|-4-4-4-4-4-4-4-4-|-----------------|-----------------|
A |-4-4-4-4-4-4-4-4-|-----------------|-----------------|-----------------|
E |-----------------|-----------------|-6-6-6-6-6-6-6-6-|-4-4-4-4-4-4-4-4-|
    1 & 2 & 3 & 4 &   1 & 2 & 3 & 4 &   1 & 2 & 3 & 4 &   1 & 2 & 3 & 4 &

G |-----------------|-----------------|-----------------|-----------------|
D |-----------------|-4-4-4-4-4-4-4-4-|-----------------|-----------------|
A |-4-4-4-4-4-4-4-4-|-----------------|-----------------|-----------------|
E |-----------------|-----------------|-6-6-6-6-6-6-6-6-|-4-4-4-4-4-4-4-4-|
    1 & 2 & 3 & 4 &   1 & 2 & 3 & 4 &   1 & 2 & 3 & 4 &   1 & 2 & 3 & 4 &

G |-----------------|-----------------|-----------------|-----------------|
D |-----------------|-----------------|-----------------|-----------------|
A |-4-4-4-4-4-4-4-4-|-----------------|-1-1-1-1-1-1-1-1-|-----------------|
E |-----------------|-2-2-2-2-2-2-2-2-|-----------------|-4-4-4-4-4-4-4-4-|
    1 & 2 & 3 & 4 &   1 & 2 & 3 & 4 &   1 & 2 & 3 & 4 &   1 & 2 & 3 & 4 &

G |-----------------|-----------------|-----------------|-----------------|
D |-----------------|-4-4-4-4-4-4-4-4-|-----------------|-----------------|
A |-4-4-4-4-4-4-4-4-|-----------------|-8-8-8-8-8-8-8-8-|-----------------|
E |-----------------|-----------------|-----------------|-6-6-6-6-6-6-6-6-|
    1 & 2 & 3 & 4 &   1 & 2 & 3 & 4 &   1 & 2 & 3 & 4 &   1 & 2 & 3 & 4 &


Break:

G |-----------------|-----------------|-----------------|-----------------|
D |-----------------|-4-4-4-4-4-4-4-4-|-----------------|-----------------|
A |-4-4-4-4-4-4-4-4-|-----------------|-----------------|-----------------|
E |-----------------|-----------------|-6-6-6-6-6-6-6-6-|-4-4-4-4-4-4-4-4-|
    1 & 2 & 3 & 4 &   1 & 2 & 3 & 4 &   1 & 2 & 3 & 4 &   1 & 2 & 3 & 4 &

G |-----------------|-----------------|-----------------|-----------------|
D |-----------------|-4-4-4-4-4-4-4-4-|-----------------|-----------------|
A |-4-4-4-4-4-4-4-4-|-----------------|-----------------|-----------------|
E |-----------------|-----------------|-6-6-6-6-6-6-6-6-|-4-4-4-4-4-4-4-4-|
    1 & 2 & 3 & 4 &   1 & 2 & 3 & 4 &   1 & 2 & 3 & 4 &   1 & 2 & 3 & 4 &


Verse 2:

G |-----------------|-----------------|-----------------|-----------------|
D |-----------------|-----------------|-----------------|-------------2-4-|
A |-4-4-4-4-4-4-4-4-|-3-3-3-3-3-3-3-3-|-----------------|-----------------|
E |-----------------|-----------------|-2-2-2-2-2-2-2-2-|-2-2-2-2-2-2-----|
    1 & 2 & 3 & 4 &   1 & 2 & 3 & 4 &   1 & 2 & 3 & 4 &   1 & 2 & 3 & 4 &

G |-----------------|-----------------|-----------------|-----------------|
D |-----------------|-----------------|-----------------|-----------------|
A |-4-4-4-4-4-4-4-4-|-3-3-3-3-3-3-3-3-|-----------------|-------------9\--|
E |-----------------|-----------------|-2---------------|-----------------|
    1 & 2 & 3 & 4 &   1 & 2 & 3 & 4 &   1 & 2 & 3 & 4 &   1 & 2 & 3 & 4 &

G |-----------------|-----------------|-----------------|-----------------|
D |-----------------|-----------------|-----------------|-----------------|
A |-4-4-4-4-4-4-4-4-|-3-3-3-3-3-3-3-3-|-----------------|-----------------|
E |-----------------|-----------------|-2-2-2-2-2-2-2-2-|-2-2-2-2-2-2-2-2-|
    1 & 2 & 3 & 4 &   1 & 2 & 3 & 4 &   1 & 2 & 3 & 4 &   1 & 2 & 3 & 4 &

G |-----------------|-----------------|-----------------|-----------------|
D |-----------------|-----------------|-4-4-4-4-4-4-4-4-|-4-4-4-4-4-4-4-4-|
A |-4-4-4-4-4-4-4-4-|-3-3-3-3-3-3-3-3-|-----------------|-----------------|
E |-----------------|-----------------|-----------------|-----------------|
    1 & 2 & 3 & 4 &   1 & 2 & 3 & 4 &   1 & 2 & 3 & 4 &   1 & 2 & 3 & 4 &


Pre-Chorus:

G |-----------------|-----------------|-----------------|-----------------|
D |-----------------|-----------------|-----------------|-----------------|
A |-----------------|-8-----6-----4---|-----------------|-8-----6-----4---|
E |-6---6---6---6---|-----------------|-4---4---4---4---|-----------------|
    1 & 2 & 3 & 4 &   1 & 2 & 3 & 4 &   1 & 2 & 3 & 4 &   1 & 2 & 3 & 4 &

G |-----------------|-----------------|-----------------|-----------------|
D |-----------------|-----------------|-----------------|-----------------|
A |-----------------|-6-----4-----3---|-----------------|-1-----3-----4---|
E |-2---2---2---2---|-----------------|-2---2---2---2---|-----------------|
    1 & 2 & 3 & 4 &   1 & 2 & 3 & 4 &   1 & 2 & 3 & 4 &   1 & 2 & 3 & 4 &


Chorus:

G |-----------------|-----------------|-----------------|-----------------|
D |-----------------|-----------------|-----------------|-----------------|
A |-----------------|-8-----6-----4---|-----------------|-8-----6-----4---|
E |-6---6---6---6---|-----------------|-4---4---4---4---|-----------------|
    1 & 2 & 3 & 4 &   1 & 2 & 3 & 4 &   1 & 2 & 3 & 4 &   1 & 2 & 3 & 4 &

G |-----------------|-----------------|-----------------|-----------------|
D |-----------------|-----------------|-----------------|-----------------|
A |-----------------|-----------------|-----------------|---4-4-4-4-4-4-4-|
E |-1-2-2-2-2-2-2-2-|-1-2-2-2-2-2-2-2-|-1-2-2-2-1-2-2-2-|-----------------|
    1 & 2 & 3 & 4 &   1 & 2 & 3 & 4 &   1 & 2 & 3 & 4 &   1 & 2 & 3 & 4 &

G |-----------------|-----------------|-----------------|-----------------|
D |-----------------|-4-4-4-4-4-4-4-4-|-----------------|-----------------|
A |-4-4-4-4-4-4-4-4-|-----------------|-----------------|-----------------|
E |-----------------|-----------------|-6-6-6-6-6-6-6-6-|-4-4-4-4-4-4-4-4-|
    1 & 2 & 3 & 4 &   1 & 2 & 3 & 4 &   1 & 2 & 3 & 4 &   1 & 2 & 3 & 4 &

G |-----------------|-----------------|-----------------|-----------------|
D |-----------------|-4-4-4-4-4-4-4-4-|-----------------|-----------------|
A |-4-4-4-4-4-4-4-4-|-----------------|-----------------|-----------------|
E |-----------------|-----------------|-6-6-6-6-6-6-6-6-|-4-4-4-4-4-4-4-4-|
    1 & 2 & 3 & 4 &   1 & 2 & 3 & 4 &   1 & 2 & 3 & 4 &   1 & 2 & 3 & 4 &

G |-----------------|-----------------|-----------------|-----------------|
D |-----------------|-----------------|-----------------|-----------------|
A |-4-4-4-4-4-4-4-4-|-----------------|-1-1-1-1-1-1-1-1-|-----------------|
E |-----------------|-2-2-2-2-2-2-2-2-|-----------------|-4-4-4-4-4-4-4-4-|
    1 & 2 & 3 & 4 &   1 & 2 & 3 & 4 &   1 & 2 & 3 & 4 &   1 & 2 & 3 & 4 &

G |-----------------|-----------------|-----------------|-----------------|
D |-----------------|-4-4-4-4-4-4-4-4-|-----------------|-----------------|
A |-4-4-4-4-4-4-4-4-|-----------------|-8-8-8-8-8-8-8-8-|-----------------|
E |-----------------|-----------------|-----------------|-6-6-6-6-6-6-6-6-|
    1 & 2 & 3 & 4 &   1 & 2 & 3 & 4 &   1 & 2 & 3 & 4 &   1 & 2 & 3 & 4 &


Outro:

G |-----------------|-----------------|-----------------|-----------------|
D |-----------------|-4---------------|-----------------|-----------------|
A |-4---------------|-----------------|-----------------|-----------------|
E |-----------------|-----------------|-6---------------|-4---------------|
    1 & 2 & 3 & 4 &   1 & 2 & 3 & 4 &   1 & 2 & 3 & 4 &   1 & 2 & 3 & 4 &

G |-----------------|-----------------|-----------------|-----------------|
D |-3---------------|-----------------|-----------------|-----------------|
A |-----------------|-4---------------|-----------------|-----------------|
E |-----------------|-----------------|-6---------------|-4---------------|
    1 & 2 & 3 & 4 &   1 & 2 & 3 & 4 &   1 & 2 & 3 & 4 &   1 & 2 & 3 & 4 &

G |-----------------|-----------------|-----------------|-----------------|
D |-----------------|-4-4-4-4-4-4-4-4-|-----------------|-----------------|
A |-4-4-4-4-4-4-4-4-|-----------------|-----------------|-----------------|
E |-----------------|-----------------|-6-6-6-6-6-6-6-6-|-4-4-4-4-4-4-4-4-|
    1 & 2 & 3 & 4 &   1 & 2 & 3 & 4 &   1 & 2 & 3 & 4 &   1 & 2 & 3 & 4 &
G |-----------------|-----------------|-----------------|-----------------|
D |-----------------|-4-4-4-4-4-4-4-4-|-----------------|-----------------|
A |-4-4-4-4-4-4-4-4-|-----------------|-----------------|-----------------|
E |-----------------|-----------------|-6-6-6-6-6-6-6-6-|-4-4-4-4-4-4-4-4-|
    1 & 2 & 3 & 4 &   1 & 2 & 3 & 4 &   1 & 2 & 3 & 4 &   1 & 2 & 3 & 4 &

G |-----------------|-----------------|-----------------|-----------------|
D |-----------------|-----------------|-----------------|-----------------|
A |-4-4-4-4-4-4-4-4-|-----------------|-1-1-1-1-1-1-1-1-|-----------------|
E |-----------------|-2-2-2-2-2-2-2-2-|-----------------|-4-4-4-4-4-4-4-4-|
    1 & 2 & 3 & 4 &   1 & 2 & 3 & 4 &   1 & 2 & 3 & 4 &   1 & 2 & 3 & 4 &

G |-----------------|-----------------|-----------------|-----------------|
D |-----------------|-4-4-4-4-4-4-4-4-|-8-8-8-8-8-8-8-8-|-6---------------|
A |-4-4-4-4-4-4-4-4-|-----------------|-----------------|-----6-----------|
E |-----------------|-----------------|-----------------|---------4-------|
    1 & 2 & 3 & 4 &   1 & 2 & 3 & 4 &   1 & 2 & 3 & 4 &   1 & 2 & 3 & 4 &

↓ Add and view comments below ↓

What do you think about this song and these tabs?

Add your comments, questions, rant or a thumbs up below.

Almost there ...

Sign in to get your own page with links to favourite songs and more. You are just one click away...

Login with Facebook Login with Google