Log in

One click and you are in

Login with Facebook Login with Google

Why sign up and log in

Guitar Tabs Explorer
The Killers bass tabs for Life to come

Bass tabs

  • Difficulty: Beginner
Tuning: Standard (E A D G)


Intro: 0:27

G|-------------|-------|-------|
D|-------------|-------|-------|
A|-3-----3-----|-------|-5-3---|
E|---0-1---0-1-|-5-0-1-|-----3-|

Verse 1:
 Repeat From 0:45-1:11|1:12
G|---------------------|-------------------------------------------------------------------|
D|---------------------|-------------------------------------------------------------------|
A|-3-3--3--3-3--3--3-3-|-3-8-8--8--8-8--8-7-7--7--7-7--7-----------------------------------|
E|---------------------|----------------------------------3-3--3--3-3--3--3-3--3--3-3--3---|

 1:29
G|----------------------|
D|----------------------|
A|--8----7--------------|
E|-------------5-----3--|


Chorus: 1:38
G|---------------------------------------------------------------------------------|
D|---------------------------------------------------------------------------------|
A|---------------------------------------------------------------------------------|
E|-1--1-1-1--1-1-1--1-1-1--1-0--0-0-0--0-0-0--0-0-0--0-5--5-5-5--5-5-5--5-5-5--5-3-|


G|---------------------------|---|
D|---------------------------|---|    Repeat 2 Times
A|---------------------------|---|   Slide to 8 Second Time
E|-3--3-3-3--3-3-3--3-3-3--3-|-/8|


Verse 2: 1:58
G|----------------------------------------------|
D|----------------------------------------------| Repeat 2 Times
A|-3--3-3--3-3--3-3-----------------------------|
E|-------------------0-0-1--1-1--1-1--1-1-1-1-1-|

G|-----------------------------------------------------------------------------------------|
D|-----------------------------------------------------------------------------------------|
A|---------------------------------------------5--5-5--5-5--5-5--3--2-2--2-2--2-2--2-2-2-2-|
E|-5--5-5--5-5--5-5-0-0-1--1-1--1-1--1-1-1-1-1---------------------------------------------|


  Repeat 2:16-2:24   2:25
G|---------------------|----------------------------------------------------------------------------|
D|---------------------|----------------------------------------------------------------------------|
A|-3-3--3--3-3--3--3-3-|-3-8-8--8--8-8--8-7-7--7--7-7--7--------------------------------------------|
E|---------------------|----------------------------------3-3--3--3-3--3--3-3--3--3-3--3-/15--15-15-|


Chorus: 2:34

Repeat 4 Times
G|---------------------------------------------------------------------------------|
D|---------------------------------------------------------------------------------|
A|---------------------------------------------------------------------------------|
E|-1--1-1-1--1-1-1--1-1-1--1-0--0-0-0--0-0-0--0-0-0--0-5--5-5-5--5-5-5--5-5-5--5-3-|


G|---------------------------|
D|---------------------------|
A|---------------------------|
E|-3--3-3-3--3-3-3--3-3-3--3-|




Bridge: 3:09
G|-----------------------------------------------|
D|-----------------------------------------------|
A|-5---0-3--5---0-3--3-3--5---0-3--5-------------|
E|---5--------5-------------5--------5-3-1-1-1-1-|


Outro: 3:36
G|---------------------------------------------------------------------------------|
D|---------------------------------------------------------------------------------|
A|---------------------------------------------------------------------------------|
E|-1--1-1-1--1-1-1--1-1-1--1-0--0-0-0--0-0-0--0-0-0--0-5--5-5-5--5-5-5--5-5-5--5-3-|


G|---------------------------|----|
D|---------------------------|----|     Repeat 4 Times
A|---------------------------|----|   Slide to 8 Fourth Time
E|-3--3-3-3--3-3-3--3-3-3--3-|-/8~|




************************************
| /  Slide up
| ~  Vibrato
************************************

Almost there ...

Sign in to get your own page with links to favourite songs and more. You are just one click away...

Login with Facebook Login with Google