Log in

One click and you are in

Login with Facebook Login with Google

Why sign up and log in

Guitar Tabs Explorer
The Killers guitar tabs for I cant stay

Guitar tabs

Difficulty: Intermediate



Verse 1
(bass, but it sounds good on the guitar)
e|--------------------------------------|
B|--------------------------------------|
G|--------------------------------------|
D|--------------------------------------|
A|---------------------------333-333----|
E|-666-666--333-333--444-444------------|

e|-------------------------------------------|
B|-------------------------------------------|
G|-------------------------------------------|
D|-------------------------------------------|
A|---------------------------666-666---------|
E|-111-111--666-333--444-444----------444-444|

e|-x-x-x-x-x----------|
B|-x-x-x-x-x----------|
G|-x-x-x-x-x----------|
D|-x-x-x-x-x-(x4)-----|
A|-x-x-x-x-x----------|
E|-x-x-x-x-x----------|


Chorus

e|---------------------------------------------|
B|---------------------------------------------|
G|-------------------------------888-----------|
D|-888-------333-------555-------888-(x2)------|
A|-888-(x2)--333-(x2)--555-(x2)--666-----------|
E|-666-------111-------333---------------------|

e|---------------------------------------------|
B|---------------------------------------------|
G|-------------------------------555--101010---|
D|-888-------555-------666-------555--101010---|
A|-888-(x2)--555-(x2)--666-(x2)--333--8-8-8----|
E|-666-------333-------444---------------------|

e|----------------------|
B|----------------------|
G|----------------------|
D|-888------------------|
A|-888-(x4)-------------|
E|-666------------------|

e|----------------------------------------|
B|----------------------------------------|
G|-------------------555-555--------------|
D|-555-555--666-666--555-555--------------|
A|-555-555--666-666--333-333--------------|
E|-333-333--444-444-----------------------|

e|--------------------------------------------------------|
B|--------------------------------------------------------|
G|----------------------------888-888----------888--------|
D|-333-333--888-555-----------888-888-666-666--888-(x4)---|
A|-333-333--888-555--666-666--666-666-666-666--666--------|
E|-111-111--666-333--444-444----------444-444-------------|

Chorus


Solo
e|----------------------------------------------------|
B|----------------------------------------------------|
G|-------------------------------------------3-5-6-3-3|
D|---------------------------------------3-5----------|
A|---------3-5-----1---1/3--3-1/3-5-3/5-6-------------|
E|-6-6-6-6-----1/3---3--------------------------------|


Bridge

e|--------------------------------|
B|--------------------------------|
G|---6---------------10-----------|
D|-4-6-6----------4--10-----------|
A|-4-4-6---(x3)---4--8------------|
E|-2---4----------2---------------|

Repeat Chorus (x2)


Outro (Same as chorus)

e|---------------------------------------------|
B|---------------------------------------------|
G|-------------------------------888-----------|
D|-888-------333-------555-------888-(x2)------|
A|-888-(x2)--333-(x2)--555-(x2)--666-----------|
E|-666-------111-------333---------------------|

e|---------------------------------------------|
B|---------------------------------------------|
G|-------------------------------555--101010---|
D|-888-------555-------666-------555--101010---|
A|-888-(x2)--555-(x2)--666-(x2)--333--8-8-8----|
E|-666-------333-------444---------------------|

THE END!

Other versions of I Can't Stay

I can't stayChords

↓ Add and view comments below ↓

What do you think about this song and these tabs?

Add your comments, questions, rant or a thumbs up below.

Almost there ...

Sign in to get your own page with links to favourite songs and more. You are just one click away...

Login with Facebook Login with Google