Log in

One click and you are in

Login with Facebook Login with Google

Why sign up and log in

Guitar Tabs Explorer
The Killers bass tabs for Dont shoot me santa

Don't Shoot Me Santa bass tab by The Killers

The Killers bass tabs for Dont shoot me santa

Bass tabs

Verse 1:
Gb|-----------------------------------------------------------------|
Db|-----------------------------------------------------------------|
Ab|-----------------------------------------------------------------|
Eb|-0-------------------0---0-----------0---2---4-------------------|

Gb|-----------------------------------------------------------------|
Db|-----------------------------------------------------------------|
Ab|-----------------------------------------------------------------|
Eb|-5-------------------0---5-----------5---4---7-------------------|

Gb|-----------------------------------------------------------------|
Db|-----------------------------------------------------------------|
Ab|---------------6h7---7-------------------------------------------|
Eb|-0-----------------------0-----------0---4---5-------------------|

Gb|-----------------------------------------------------------------|
Db|-----------------------------------------------------------------|
Ab|-----------------------------------------------------------------|
Eb|-7-------------------2---7-----------7---5---2-------------------|

Gb|-----------------------------------------------------------------|
Db|-----------------------------------------------------------------|
Ab|-----------------------------------------------------------------|
Eb|-4-------------------4---4-----------4---6---7-------------------|

Gb|-----------------------------------------------------------------|
Db|-----------------------------------------------------------------|
Ab|-----------------------------------------------------------------|
Eb|-9-------------------4---9-----------9---7---0-------------------|

Gb|-----------------------------------------------------------------|
Db|-----------------------------------------------------------------|
Ab|-----------------------------------------------------------------|
Eb|-2-------------------2---2-----------2---4---2-------------------|

Gb|-----------------------------------------------------------------|
Db|-----------------------------------------------------------------|
Ab|-----------------------------------------------------------------|
Eb|-5---------------------------------------------------------------|

Pre-Chorus 1:
Gb|-----------------------------------------------------------------|
Db|-----------------------------------------------------------------|
Ab|---------------------------------------------------------6-------|
Eb|-------------------------------------------------7---9-------7---|


Chorus 1:
Gb|-----------------------------------------------------------------|
Db|-----------------------------------------------------------------|
Ab|-7-7-7-7-7-7-7-7-7-7-7-7-7-7-7-7---------------------------------|
Eb|---------------------------------7-7-7-7-7-7-7-7-8-8-8-8-8-8-8-8-|

Gb|-----------------------------------------------------------------|
Db|-----------------------------------------------------------------|
Ab|-----------------------------------------------------------------|
Eb|-9-9-9-9-9-9-9-9-7-7-7-7-7-7-7-7-5-5-5-5-5-5-5-5-7-7-7-7-7-7-7-7-|

Gb|-----------------------------------------------------------------|
Db|-----------------------------------------------------------------|
Ab|-7-7-7-7-7-7-7-7-7-7-7-7-7-7-7-7---------------------------------|
Eb|---------------------------------7-7-7-7-7-7-7-7-8-8-8-8-8-8-8-8-|

Gb|-----------------------------------------------------------------|
Db|-----------------------------------------------------------------|
Ab|-----------------------------------------------------------------|
Eb|-9-9-9-9-9-9-9-9-7-7-7-7-7-7-7-7-5-5-5-5-5-5-5-5-7-7-7-7-7-7-7---|


Verse 2:
Gb|-----------------------------------------------------------------|
Db|-----------------------------------------------------------------|
Ab|-----------------------------------------------------------------|
Eb|-0-------------------0---0-----------0---2---4-------------------|

Gb|-----------------------------------------------------------------|
Db|-----------------------------------------------------------------|
Ab|-----------------------------------------------------------------|
Eb|-5-------------------5---5-----------5---4---5h7-----------------|

Gb|-----------------------------------------------------------------|
Db|-----------------------------------------------------------------|
Ab|--------------6h7--6h7-------------------------------------------|
Eb|-0-----------------------0-----------0---4---5-------------------|

Gb|-----------------------------------------------------------------|
Db|-----------------------------------------------------------------|
Ab|-----------------------------------------------------------------|
Eb|-7-------------------2---7-----------7---5---2-------------------|

Gb|-----------------------------------------------------------------|
Db|-----------------------------------------------------------------|
Ab|-----------------------------------------------------------------|
Eb|-4-------------------4---4-----------4---6---7-------------------|

Gb|-----------------------------------------------------------------|
Db|-----------------------------------------------------------------|
Ab|-----------------------------------------------------------------|
Eb|-9-------------------4---9-----------9---7---0-------------------|

Gb|-----------------------------------------------------------------|
Db|-----------------------------------------------------------------|
Ab|-----------------------------------------------------------------|
Eb|-2-------------------2---2-----------2---4---2-------------------|

Gb|-----------------------------------------------------------------|
Db|-----------------------------------------------------------------|
Ab|-----------------------------------------------------------------|
Eb|-5---------------------------------------------------------------|


Pre-Chorus 2:
Gb|-----------------------------------------------------------------|
Db|-----------------------------------------------------------------|
Ab|---------------------------------------------------------6-------|
Eb|-------------------------------------------------7---9-------7---|


Chorus 2:
Gb|-----------------------------------------------------------------|
Db|-----------------------------------------------------------------|
Ab|-7-7-7-7-7-7-7-7-7-7-7-7-7-7-7-7---------------------------------|
Eb|---------------------------------7-7-7-7-7-7-7-7-8-8-8-8-8-8-8-8-|

Gb|-----------------------------------------------------------------|
Db|-----------------------------------------------------------------|
Ab|-----------------------------------------------------------------|
Eb|-9-9-9-9-9-9-9-9-7-7-7-7-7-7-7-7-5-5-5-5-5-5-5-5-7-7-7-7-7-7-7-7-|

Gb|-----------------------------------------------------------------|
Db|-----------------------------------------------------------------|
Ab|-7-7-7-7-7-7-7-7-7-7-7-7-7-7-7-7---------------------------------|
Eb|---------------------------------7-7-7-7-7-7-7-7-8-8-8-8-8-8-8-8-|

Gb|-----------------------------------------------------------------|
Db|-----------------------------------------------------------------|
Ab|-----------------------------------------------------------------|
Eb|-9-9-9-9-9-9-9-9-7-7-7-7-7-7-7-7-5-5-5-5-5-5-5-5-7-7-7-7-7-7-7---|


Bridge:
Gb|-----------------------------------------------------------------|
Db|-----------------------------------------------------------------|
Ab|-----------------------------------------------------------------|
Eb|-5-----5-5-------7-----7-7-------0-----0-0-------5---5-5---------|

Gb|-----------------------------------------------------------------|
Db|-----------------------------------------------------------------|
Ab|-----------------------------------------------------------------|
Eb|-2-----2-2-------9-----2-2-------7-----7-7-------7---7-7---------|

Gb|-----------------------------------------------------------------|
Db|-----------------------------------------------------------------|
Ab|-7-7-7-7-7-7-7-7-7-7-7-7-7-7-7-7---------------------------------|
Eb|---------------------------------0-0-0-0-0-0-0-0-0-0-0-0-0-0-0-0-|


Solo:
Gb|-----------------------------------------------------------------|
Db|-----------------------------------------------------------------|
Ab|-7-7-7-7-7-7-7-7-7-7-7-7-7-7-7-7---------------------------------|
Eb|---------------------------------7-7-7-7-7-7-7-7-8-8-8-8-8-8-8-8-|

Gb|-----------------------------------------------------------------|
Db|-----------------------------------------------------------------|
Ab|-----------------------------------------------------------------|
Eb|-9-9-9-9-9-9-9-9-7-7-7-7-7-7-7-7-5-5-5-5-5-5-5-5-7-7-7-7-7-7-7-7-|


Chorus 3:
Gb|-----------------------------------------------------------------|
Db|-----------------------------------------------------------------|
Ab|-7-7-7-7-7-7-7-7-7-7-7-7-7-7-7-7---------------------------------|
Eb|---------------------------------7-7-7-7-7-7-7-7-8-8-8-8-8-8-8-8-|

Gb|-----------------------------------------------------------------|
Db|-----------------------------------------------------------------|
Ab|-----------------------------------------------------------------|
Eb|-9-9-9-9-9-9-9-9-7-7-7-7-7-7-7-7-5-5-5-5-5-5-5-5-7-7-7-7-7-7-7-7-|

Gb|-----------------------------------------------------------------|
Db|-----------------------------------------------------------------|
Ab|-----------------------------------------------------------------|
Eb|-7-----7-7-------7-----7-7-------7-----7-7-------7-----7-7-------|


Outro:
Gb|-----------------------------------------------------------------|
Db|-----------------------------------------------------------------|
Ab|-7-------------6h7---6-------------------------------------------|
Eb|-------------------------9---------------9---7-------------------|

Gb|-----------------------------------------------------------------|
Db|-----------------------------------------------------------------|
Ab|-----------------------------------------------------------------|
Eb|-5---------------5---5---7-----------7---9---7-------------------|

Gb|-----------------------------------------------------------------|
Db|-----------------------------------------------------------------|
Ab|-7---------------------------------------------------------------|
Eb|-----------------------------------------------------------------|

↓ Add and view comments below ↓

What do you think about this song and these tabs?

Add your comments, questions, rant or a thumbs up below.

Almost there ...

Sign in to get your own page with links to favourite songs and more. You are just one click away...

Login with Facebook Login with Google