Log in

One click and you are in

Login with Facebook Login with Google

Why sign up and log in

Guitar Tabs Explorer
The Killers bass tabs for Daddys eyes

Bass tabs

[Verse]

G|----------------|----------------|----------------|----------------|
D|----------------|----------------|----------------|----------------|
A|----------------|----------------|3---------------|----------5---3-|
E|0---------------|----------2---3-|----------------|----------------|

G|----------------|----------------|----------------|----------------|
D|----------------|----------------|2-----------2---|----------------|
A|0---------------|------------0---|----------------|5---------6---7-|
E|----------------|----------------|----------------|----------------|

G|----------------|----------------|----------------|----------------|
D|----------------|----------------|----------------|----------------|
A|----------------|----------------|3---------------|----------5---3-|
E|0---------------|----------2---3-|----------------|----------------|

G|----------------|----------------|----------------|----------------|
D|----------------|----------------|2-----------2---|----------------|
A|0---------------|------------0---|----------------|5---------6---7-|
E|----------------|----------------|----------------|----------------|


[Pre-Chorus]

G|----------------|----------------|----------------|----------------|
D|5---------------|----------------|----------------|----7-----------|
A|----------------|----------0---2/|5---------------|------5---5---5-|
E|----------------|----------------|----------------|----------------|

G|----------------|----------------|----------------|----------------|
D|----------------|----------------|2---------------|0---------------|
A|0---------------|------------0---|----------------|----------------|
E|----------------|----------------|----------------|----0-0-2-2-3-3-|


[Chorus]

G|----------------|----------------|----------------|----------------|
D|----------------|----------------|----------------|----------------|
A|----------------|----------------|3---3---3-----3-|--3-------------|
E|0---0---0-----0-|--0-0---2---3---|----------------|----0---2---3---|

G|----------------|----------------|----------------|----------------|
D|----------------|----------------|2---2---2---2-1-|0-------0---0-1-|
A|0---0---0-----0-|--0-------------|----------------|----------------|
E|----------------|----0---2---3---|----------------|----------------|


[Verse]

G|----------------|----------------|----------------|----------------|
D|----------------|----------------|----------------|----------------|
A|----------------|----------------|3-3-3-3-3-3-3-3-|3-3-3-3-3-3-3-3-|
E|0-0-0-0-0-0-0-0-|0-0-0-0-0-0-0-0-|----------------|----------------|

G|----------------|----------------|----------------|
D|----------------|----------------|2-2-2-2-2-2-2-2-|
A|----------------|----------------|----------------|
E|5-5-5-5-5-5-5-5-|5-5-5-5-5-5-5-5-|----------------|


[Pre-Chorus]

G|----------------|----------------|----------------|----------------|
D|5---------------|----------------|----------------|----7-----------|
A|----------------|----------0---2/|5---------------|------5---5---5-|
E|----------------|----------------|----------------|----------------|

G|----------------|----------------|----------------|----------------|
D|----------------|----------------|2---------------|0---------------|
A|0---------------|------------0---|----------------|----------------|
E|----------------|----------------|----------------|----0-0-2-2-3-3-|


[Bridge]

G|----------------|----------------|----------------|----------------|
D|----------------|----------------|----------------|----------------|
A|3---------------|2---------------|0---------------|----------------|
E|----------------|----------------|----------------|3---3-----------|

G|----------------|----------------|----------------|--------7---7---|
D|----------------|----------------|----------------|----------------|
A|3---------------|----------------|5---------------|------0---------|
E|----------------|3---------------|----------------|----------------|

G|----------------|12-12-12-12-12-12-12-12-|
D|----------------|------------------------|
A|5-5-5-5-5-5-5-5-|------------------------|

↓ Add and view comments below ↓

What do you think about this song and these tabs?

Add your comments, questions, rant or a thumbs up below.

Almost there ...

Sign in to get your own page with links to favourite songs and more. You are just one click away...

Login with Facebook Login with Google