Log in

One click and you are in

Login with Facebook Login with Google

Why sign up and log in

Guitar Tabs Explorer
The Killers guitar tabs for Caution

Guitar tabs

Intro:

e|------------------------12-----------------------12----------------------------|
B|---------8-10-7-8----12------------8-10-7-8---12--------------------------------------------|
G|-5-4-------------------------5-4------------------------------------------------|
D|-----5---------------------------5---------------------------------------|
A|---------------------------------------------------------------------------|
E|---------------------------------------------------------------------------|

 |Verse|

e|--3-3-3-3-3---0-0-0-0-0--0-0-0-0-0--3-3-3-3-3---------------------------------------------------------|
B|--3-3-3-3-3---0-0-0-0-0--1-1-1-1-1--0-0-0-0-0---------------------------------------------------------|
G|--4-4-4-4-4---0-0-0-0-0--0-0-0-0-0--0-0-0-0-0---------------------------------------------------------|
D|--5-5-5-5-5---2-2-2-2-2--2-2-2-2-2--0-0-0-0-0---------------------------------------------------------|
A|--5-5-5-5-5---2-2-2-2-2--3-3-3-3-3--2-2-2-2-2---------------------------------------------------------|
E|--3-3-3-3-3---0-0-0-0-0-------------3-3-3-3-3---------------------------------------------------------|

e|--3-3-3-3-3---0-0-0-0-0--0-0-0-0-0--3-3-3-3-3---------------------------------------------------------|
B|--3-3-3-3-3---0-0-0-0-0--1-1-1-1-1--0-0-0-0-0---------------------------------------------------------|
G|--4-4-4-4-4---0-0-0-0-0--0-0-0-0-0--0-0-0-0-0---------------------------------------------------------|
D|--5-5-5-5-5---2-2-2-2-2--2-2-2-2-2--0-0-0-0-0---------------------------------------------------------|
A|--5-5-5-5-5---2-2-2-2-2--3-3-3-3-3--2-2-2-2-2---------------------------------------------------------|
E|--3-3-3-3-3---0-0-0-0-0-------------3-3-3-3-3---------------------------------------------------------|

e|--3-3-3-3-3---0-0-0-0-0--0-0-0-0-0--3-3-3-3-3---------------------------------------------------------|
B|--3-3-3-3-3---0-0-0-0-0--1-1-1-1-1--0-0-0-0-0---------------------------------------------------------|
G|--4-4-4-4-4---0-0-0-0-0--0-0-0-0-0--0-0-0-0-0---------------------------------------------------------|
D|--5-5-5-5-5---2-2-2-2-2--2-2-2-2-2--0-0-0-0-0---------------------------------------------------------|
A|--5-5-5-5-5---2-2-2-2-2--3-3-3-3-3--2-2-2-2-2---------------------------------------------------------|
E|--3-3-3-3-3---0-0-0-0-0-------------3-3-3-3-3---------------------------------------------------------|

e|--3-3-3-3-3---0-0-0-0-0--0-0-0-0-0--3-3-3-3-3---------------------------------------------------------|
B|--3-3-3-3-3---0-0-0-0-0--1-1-1-1-1--0-0-0-0-0---------------------------------------------------------|
G|--4-4-4-4-4---0-0-0-0-0--0-0-0-0-0--0-0-0-0-0---------------------------------------------------------|
D|--5-5-5-5-5---2-2-2-2-2--2-2-2-2-2--0-0-0-0-0---------------------------------------------------------|
A|--5-5-5-5-5---2-2-2-2-2--3-3-3-3-3--2-2-2-2-2---------------------------------------------------------|
E|--3-3-3-3-3---0-0-0-0-0-------------3-3-3-3-3---------------------------------------------------------|

Verse 1:

e|--3-3-3-3-3---0-0-0-0-0--0-0-0-0-0--3-3-3-3-3---------------------------------------------------------|
B|--3-3-3-3-3---0-0-0-0-0--1-1-1-1-1--0-0-0-0-0---------------------------------------------------------|
G|--4-4-4-4-4---0-0-0-0-0--0-0-0-0-0--0-0-0-0-0---------------------------------------------------------|
D|--5-5-5-5-5---2-2-2-2-2--2-2-2-2-2--0-0-0-0-0---------------------------------------------------------|
A|--5-5-5-5-5---2-2-2-2-2--3-3-3-3-3--2-2-2-2-2---------------------------------------------------------|
E|--3-3-3-3-3---0-0-0-0-0-------------3-3-3-3-3---------------------------------------------------------|

e|--3-3-3-3-3---0-0-0-0-0--0-0-0-0-0--3-3-3-3-3---------------------------------------------------------|
B|--3-3-3-3-3---0-0-0-0-0--1-1-1-1-1--0-0-0-0-0---------------------------------------------------------|
G|--4-4-4-4-4---0-0-0-0-0--0-0-0-0-0--0-0-0-0-0---------------------------------------------------------|
D|--5-5-5-5-5---2-2-2-2-2--2-2-2-2-2--0-0-0-0-0---------------------------------------------------------|
A|--5-5-5-5-5---2-2-2-2-2--3-3-3-3-3--2-2-2-2-2---------------------------------------------------------|
E|--3-3-3-3-3---0-0-0-0-0-------------3-3-3-3-3---------------------------------------------------------|


e|--3-3-3-3-3---0-0-0-0-0--0-0-0-0-0--3-3-3-3-3---------------------------------------------------------|
B|--3-3-3-3-3---0-0-0-0-0--1-1-1-1-1--0-0-0-0-0---------------------------------------------------------|
G|--4-4-4-4-4---0-0-0-0-0--0-0-0-0-0--0-0-0-0-0---------------------------------------------------------|
D|--5-5-5-5-5---2-2-2-2-2--2-2-2-2-2--0-0-0-0-0---------------------------------------------------------|
A|--5-5-5-5-5---2-2-2-2-2--3-3-3-3-3--2-2-2-2-2---------------------------------------------------------|
E|--3-3-3-3-3---0-0-0-0-0-------------3-3-3-3-3---------------------------------------------------------|

e|--3-3-3-3-3---0-0-0-0-0--0-0-0-0-0--3-3-3-3-3---------------------------------------------------------|
B|--3-3-3-3-3---0-0-0-0-0--1-1-1-1-1--0-0-0-0-0---------------------------------------------------------|
G|--4-4-4-4-4---0-0-0-0-0--0-0-0-0-0--0-0-0-0-0---------------------------------------------------------|
D|--5-5-5-5-5---2-2-2-2-2--2-2-2-2-2--0-0-0-0-0---------------------------------------------------------|
A|--5-5-5-5-5---2-2-2-2-2--3-3-3-3-3--2-2-2-2-2---------------------------------------------------------|
E|--3-3-3-3-3---0-0-0-0-0-------------3-3-3-3-3---------------------------------------------------------|


e|--3-3-3-3-3---0-0-0-0-0--0-0-0-0-0--3-3-3-3-3---------------------------------------------------------|
B|--3-3-3-3-3---0-0-0-0-0--1-1-1-1-1--0-0-0-0-0---------------------------------------------------------|
G|--4-4-4-4-4---0-0-0-0-0--0-0-0-0-0--0-0-0-0-0---------------------------------------------------------|
D|--5-5-5-5-5---2-2-2-2-2--2-2-2-2-2--0-0-0-0-0---------------------------------------------------------|
A|--5-5-5-5-5---2-2-2-2-2--3-3-3-3-3--2-2-2-2-2---------------------------------------------------------|
E|--3-3-3-3-3---0-0-0-0-0-------------3-3-3-3-3---------------------------------------------------------|

e|--3-3-3-3-3---0-0-0-0-0--0-0-0-0-0--3-3-3-3-3---------------------------------------------------------|
B|--3-3-3-3-3---0-0-0-0-0--1-1-1-1-1--0-0-0-0-0---------------------------------------------------------|
G|--4-4-4-4-4---0-0-0-0-0--0-0-0-0-0--0-0-0-0-0---------------------------------------------------------|
D|--5-5-5-5-5---2-2-2-2-2--2-2-2-2-2--0-0-0-0-0---------------------------------------------------------|
A|--5-5-5-5-5---2-2-2-2-2--3-3-3-3-3--2-2-2-2-2---------------------------------------------------------|
E|--3-3-3-3-3---0-0-0-0-0-------------3-3-3-3-3---------------------------------------------------------|

Repeat Verse
e|--3-3-3-3-3---0-0-0-0-0--0-0-0-0-0--3-3-3-3-3---------------------------------------------------------|
B|--3-3-3-3-3---0-0-0-0-0--1-1-1-1-1--0-0-0-0-0---------------------------------------------------------|
G|--4-4-4-4-4---0-0-0-0-0--0-0-0-0-0--0-0-0-0-0---------------------------------------------------------|
D|--5-5-5-5-5---2-2-2-2-2--2-2-2-2-2--0-0-0-0-0---------------------------------------------------------|
A|--5-5-5-5-5---2-2-2-2-2--3-3-3-3-3--2-2-2-2-2---------------------------------------------------------|
E|--3-3-3-3-3---0-0-0-0-0-------------3-3-3-3-3---------------------------------------------------------|

Repeat chorus
e|--3-3-3-3-3---0-0-0-0-0--0-0-0-0-0--3-3-3-3-3---------------------------------------------------------|
B|--3-3-3-3-3---0-0-0-0-0--1-1-1-1-1--0-0-0-0-0---------------------------------------------------------|
G|--4-4-4-4-4---0-0-0-0-0--0-0-0-0-0--0-0-0-0-0---------------------------------------------------------|
D|--5-5-5-5-5---2-2-2-2-2--2-2-2-2-2--0-0-0-0-0---------------------------------------------------------|
A|--5-5-5-5-5---2-2-2-2-2--3-3-3-3-3--2-2-2-2-2---------------------------------------------------------|
E|--3-3-3-3-3---0-0-0-0-0-------------3-3-3-3-3---------------------------------------------------------|

|Solo| Chorus plays behind

e|----------------------15-17-17/15-19-19-19-17-15--------------------------------------------------|
B|-15(b)-15/17-17(b)-17---------------------------17-17--17-17-15-15--15-15-15/17\15-------------|
G|-----------------------------------------------------------------------------------14-12--------|
D|------------------------------------------------------------------------------------------14----|
A|------------------------------------------------------------------------------------------------|
E|------------------------------------------------------------------------------------------------|

e|---------------------------------------------------------------------------|
B|---------------------------------------------------------------------------|
G|-------12-14-12-14--14-12-14(b)-14-12--------------------------------------|
D|-12-14--------------------------------14-----------------------------------|
A|---------------------------------------------------------------------------|
E|---------------------------------------------------------------------------|

e|--------------------15-----------20-19----17----19-20-19----20-19-20-19--20-19--19-20-19--|
B|-----12-10----12-15----15-17--20-------20----20----------20------------20-----20--------20|
G|-9-12------12-----------------------------------------------------------------------------|
D|------------------------------------------------------------------------------------------|
A|------------------------------------------------------------------------------------------|
E|------------------------------------------------------------------------------------------|


e|-17-----15-17-19-15-----15-17-15----17-15----17--------------------------------------|
B|----17--------------17-----------17-------17----17-17-17-15--------------------------|
G|------------------------------------------------------------14-12--------------------|
D|------------------------------------------------------------------14-14--------------|
A|-------------------------------------------------------------------------------------|
E|-------------------------------------------------------------------------------------|

Other versions of Caution

CautionChords

↓ Add and view comments below ↓

What do you think about this song and these tabs?

Add your comments, questions, rant or a thumbs up below.

Almost there ...

Sign in to get your own page with links to favourite songs and more. You are just one click away...

Login with Facebook Login with Google