Log in

One click and you are in

Login with Facebook Login with Google

Why sign up and log in

Guitar Tabs Explorer
The Killers bass tabs for Caution

Bass tabs

Caution” by The Killers


Intro (No Bass)

*Full Band enters around :45 with verse section played 1 time)
Verse (play two times)

G|----------------|----------------|----------------|----------------|?
D|5-----5---------|----------------|------------5---|--5-5-----------|?
A|------------7---|--7-7---7---5---|3-----3---------|------------5/--|?
E|----------------|----------------|----------------|----------------|
 |1 + 2 + 3 + 4 + |1 + 2 + 3 + 4 + |1 + 2 + 3 + 4 + |1 + 2 + 3 + 4 + |

G|----------------|----------------|----------------|----------------|?
D|----------------|----------------|------------5---|--5-5-----------|?
A|5-----5-----7---|--7-7---7---5---|3-----3---------|------------5h7-|
 E|----------------|----------------|----------------|----------------|
 |1 + 2 + 3 + 4 + |1 + 2 + 3 + 4 + |1 + 2 + 3 + 4 + |1 + 2 + 3 + 4 + |


Chorus 1

G||----------------|----------------|----------------|----------------|?
D|o5-5-5-5-5-5-----|----------------|------5---------|----------------|?
A|o------------7---|--7-7-7-7-7-7-7-|3---------------|----------------|?
E||----------------|----------------|------------3---|--3-3-3-3-3-3-3-|
  |1 + 2 + 3 + 4 + |1 + 2 + 3 + 4 + |1 + 2 + 3 + 4 + |1 + 2 + 3 + 4 + |

G|----------------|----------------|----------------|----------------||
 D|------7---------|----------------|------5---------|----------------o|?
A|5-----------7---|--7-7-7-7-7-7-7-|3---------------|----------------o|?
E|----------------|----------------|------------3---|--3-3-3-3-3-3-3-||
 |1 + 2 + 3 + 4 + |1 + 2 + 3 + 4 + |1 + 2 + 3 + 4 + |1 + 2 + 3 + 4 + |

G|----------------|----------------|----------------|----------------|?
D|------5---------|----------------|------5---------|----------------|?
A|------------7---|--7-7-7-7-7-7-7-|3---------------|----------------|
 E|3---------------|----------------|------------3---|--3-3-3-3-3-3-3-|
 |1 + 2 + 3 + 4 + |1 + 2 + 3 + 4 + |1 + 2 + 3 + 4 + |1 + 2 + 3 + 4 + |

Post Chorus 1

G|----------------|----------------|----------------|----------------|?
D|------5---------|----------------|------5---------|----------------|?
A|------------5---|--5-5-5-5-5-5-5-|------------3---|--3-3-3-3-3-3-3-|?
E|3---------------|----------------|3---------------|----------------|
 |1 + 2 + 3 + 4 + |1 + 2 + 3 + 4 + |1 + 2 + 3 + 4 + |1 + 2 + 3 + 4 + |

G|----------------|----------------|----------------|----------------|?
D|------5---------|----------------|------5---------|----------------|?
A|3-----------5---|--5-5-5-5-5-5-5-|------------3---|--3-3-3-3-3-3-3-|?
E|----------------|----------------|3---------------|----------------|
 |1 + 2 + 3 + 4 + |1 + 2 + 3 + 4 + |1 + 2 + 3 + 4 + |1 + 2 + 3 + 4 + |

Verse 2

G|----------------|----------------|----------------|----------------|?
D|5-----5---------|------5---------|------------5---|--5-5-----------|?
A|------------7---|--5h7---7---5---|3-----3---------|------------5---|?
E|----------------|----------------|----------------|----------------|
 |1 + 2 + 3 + 4 + |1 + 2 + 3 + 4 + |1 + 2 + 3 + 4 + |1 + 2 + 3 + 4 + |

G|----------------|----------------|--------------9-|7---------------|?
D|----------------|----------------|------------5---|--9-7-5---------|?
A|5-----5-----7---|--7-7---7---5---|3-----3---------|--------7-5-----|?
E|----------------|----------------|----------------|------------7-5-|
 |1 + 2 + 3 + 4 + |1 + 2 + 3 + 4 + |1 + 2 + 3 + 4 + |1 + 2 + 3 + 4 + |

G|----------------|----------------|----------------|----------------|
 D|5-----5---------|------5---------|------------5---|--5-5-----------|
 A|------------7---|--5h7---7---5---|3-----3---------|------------5---|?
E|----------------|----------------|----------------|----------------|
 |1 + 2 + 3 + 4 + |1 + 2 + 3 + 4 + |1 + 2 + 3 + 4 + |1 + 2 + 3 + 4 + |

G|----------------|----------------|----------------|----------------|?
D|----------------|------5---------|----------------|----------------|
 A|5-----5-----7---|--5h7---7---5---|3-----3-----5---|--5-5---5---5---|
 E|----------------|----------------|----------------|----------------|
 |1 + 2 + 3 + 4 + |1 + 2 + 3 + 4 + |1 + 2 + 3 + 4 + |1 + 2 + 3 + 4 + |

(DISCLAIMER! I’m 90% that fill in the middle is actually The Guitar)


Chorus 2

G|----------------|----------------|----------------|----------------|
 D|5-5-5-5-5-5-----|----------------|------5---------|----------------|?
A|------------7---|--7-7-7-7-7-7-7-|3---------------|----------------|?
E|----------------|----------------|------------3---|--3-3-3-3-3-3-3-|
 |1 + 2 + 3 + 4 + |1 + 2 + 3 + 4 + |1 + 2 + 3 + 4 + |1 + 2 + 3 + 4 + |

G|----------------|----------------|----------------|----------------|
 D|------7---------|----------------|------5---------|----------------|?
A|5-----------7---|--7-7-7-7-7-7-7-|3---------------|----------------|?
E|----------------|----------------|------------3---|--3-3-3-3-3-3-3-|
 |1 + 2 + 3 + 4 + |1 + 2 + 3 + 4 + |1 + 2 + 3 + 4 + |1 + 2 + 3 + 4 + |

G|----------------|----------------|----------------|----------------|?
D|5-5-5-5-5-5-----|----------------|------5---------|----------------|
 A|------------7---|--7-7-7-7-7-7-7-|3---------------|----------------|?
E|----------------|----------------|------------3---|--3-3-3-3-3-3-3-|
 |1 + 2 + 3 + 4 + |1 + 2 + 3 + 4 + |1 + 2 + 3 + 4 + |1 + 2 + 3 + 4 + |

G|----------------|----------------|----------------|----------------|
 D|------7---------|----------------|------5---------|----------------|?
A|5-----------7---|--7-7-7-7-7-7-7-|3-----------5---|--5-5-5-5-5-5-5-|
E|----------------|----------------|----------------|----------------|
 |1 + 2 + 3 + 4 + |1 + 2 + 3 + 4 + |1 + 2 + 3 + 4 + |1 + 2 + 3 + 4 + |

Post Chorus 2 (play 2 times)

G|----------------|----------------|----------------|----------------|
 D|------5---------|----------------|------5---------|----------------|?
A|------------5---|--5-5-5-5-5-5-5-|------------3---|--3-3-3-3-3-3-3-|
 E|3---------------|----------------|3---------------|----------------|
 |1 + 2 + 3 + 4 + |1 + 2 + 3 + 4 + |1 + 2 + 3 + 4 + |1 + 2 + 3 + 4 + |

G|----5-5-4-4-2-2-|2-2-2-2---------|----------------|----------------|
 D|----------------|--------5-5-4-4-|5-5-5-----------|----------------|
 A|3-3-------------|----------------|------5-5-5-7-7-|7-7-7-7-7-7-7-7-|?
E|----------------|----------------|----------------|----------------|
 |1 + 2 + 3 + 4 + |1 + 2 + 3 + 4 + |1 + 2 + 3 + 4 + |1 + 2 + 3 + 4 + |


Bridge (No Bass)

Guitar Solo (Same as Post Chorus 2: played 4 times)


Outro (No Bass)

Almost there ...

Sign in to get your own page with links to favourite songs and more. You are just one click away...

Login with Facebook Login with Google