Log in

One click and you are in

Login with Facebook Login with Google

Why sign up and log in

Guitar Tabs Explorer
The Killers guitar tabs for A white demon love song

Solo tabs

Twilight is awful but this is still a great song I really like the solo at the end

e|---------------------------------------------------------------------------|
B|----------------------------------------------------------------11----11-9-|
G|-------------------------------------------6--6h8p6---6---6-/11----11------|
D|--------6b8br6-4-----------4---6-6---6-7-8----------8----------------------|
A|--2/6-------------6-4--4h6---6---------------------------------------------|
E|---------------------------------------------------------------------------|

e|---------------------------------------------------------------------------|
B|--9b11br9b11br9b11~--------------------------------------------------------|
G|---------------------------------------------------------------------------|
D|---------------------------------------------------------------------------|
A|---------------------------------------------------------------------------|
E|---------------------------------------------------------------------------|


Pretty sure this is right - please rate!
Thanks


************************************

| h   Hammer-on
| p   Pull-off
| b   Bend
| br  Bend release
| /   Slide up
| ~   Vibrato

Other versions of A White Demon Love Song

A white demon love songChords

↓ Add and view comments below ↓

What do you think about this song and these tabs?

Add your comments, questions, rant or a thumbs up below.

Almost there ...

Sign in to get your own page with links to favourite songs and more. You are just one click away...

Login with Facebook Login with Google