Log in

One click and you are in

Login with Facebook Login with Google

Why sign up and log in

Guitar Tabs Explorer
The Killers bass tabs for All these things that ive done

All These Things That I've Done bass tab by The Killers

The Killers bass tabs for All these things that ive done

Bass tabs

The Killers - All These Things That I've Done


Tuning: Eb Ab Db Gb

Pre-verse
Gb|------------------------------------------------|-----------------------------------12-12-12-12-9-9-9-9-|
Db|------------------------------------------------|-------------------------------------------------------|
Ab|-/10-10-10-10–10-10-10-/10–10-10-10–10-10-10-10-|-/10-10-10-10-10-10-10-/10-10-10-10--------------------|
Eb|------------------------------------------------|-------------------------------------------------------|

Gb|-------------------------------|---------------------------------------------|
Db|-------------------------------|---------------------------------------------|
Ab|-3-3-3-3-3-3-3--3--3-3-3-3-3-3-|-10-10-10-10-10-10-10--10-–10-10-10-10-10-10-|
Eb|-------------------------------|---------------------------------------------|
Verse 1
Gb|----------------------------------------------|----------------------------------------------|
Db|----------------------------------------------|----------------------------------------------|
Ab|-10-10-10-10-10--------10-10-10-10-10---------|-10-10-10-10-10--------10-10-10-10-10---------|
Eb|---------------10-12-10--------------10-12-10-|---------------10-12-10--------------10-12-10-|

Gb|------------------------------------|----------------------------------------------|
Db|------------------------------------|----------------------------------------------|
Ab|----------12-10-12–--------12-10-12–|-10-10-10-10-10--------10-10-10-10-10---------|
Eb|-8-8-8-8-8--------8-8-8-8-8---------|---------------10-12-10--------------10-12-10-|

Gb|----------------------------------------------|----------------------------------------------|
Db|----------------------------------------------|----------------------------------------------|
Ab|-10-10-10-10-10--------10-10-10-10-10---------|-10-10-10-10-10--------10-10-10-10-10---------|
Eb|---------------10-12-10--------------10-12-10-|---------------10-12-10--------------10-12-10-|

Gb|------------------------------------|-------------------------------------------|
Db|------------------------------------|-------------------------------------------|
Ab|----------12-10-12–--------12-10-12–|-10-10-10-10-10--------10-10-10-10-10------|
Eb|-8-8-8-8-8--------8-8-8-8-8---------|---------------10-12-10--------------3-3-3-|

Chorus 1
Gb|--------------------------------------------------|-----------------------------------12-12-12-12-9-9-9-9-|
Db|--------------------------------------------------|-------------------------------------------------------|
Ab|-/10-10-10-10–/10-10-10-/10–10-10-10–/10-10-10-10-|-/10-10-10-10-/10-10-10-/10-10-10-10-------------------|
Eb|--------------------------------------------------|-------------------------------------------------------|

Gb|-------------------------------|----------------------------------------------|
Db|-------------------------------|----------------------------------------------|
Ab|-3-3-3-3-3-3-3--3--3-3-3-3-3-3-|-/10-10-10-10-10-10-10--10–-10-10-10-10-10-10-|
Eb|-------------------------------|----------------------------------------------|


Verse 2
Gb|----------------------------------------------|----------------------------------------------|
Db|----------------------------------------------|----------------------------------------------|
Ab|-10-10-10-10-10--------10-10-10-10-10---------|-10-10-10-10-10--------10-10-10-10-10---------|
Eb|---------------10-12-10--------------10-12-10-|---------------10-12-10--------------10-12-10-|

Gb|------------------------------------|-------------------------------------------|
Db|------------------------------------|-------------------------------------------|
Ab|----------12-10-12–--------12-10-12–|-10-10-10-10-10--------10-10-10-10-10------|
Eb|-8-8-8-8-8--------8-8-8-8-8---------|---------------10-12-10--------------3-3-3-|


Chorus 2
Gb|--------------------------------------------------|--------------------------------------------------|
Db|--------------------------------------------------|--------------------------------------------------|
Ab|-/10-10-10-10–/10-10-10-/10–10-10-10–/10-10-10-10-|-/10-10-10-10–/10-10-10-/10–10-10-10–/10-10-10-10-|
Eb|--------------------------------------------------|--------------------------------------------------|

Gb|-------------------------------|-----------------------------------------------|
Db|-------------------------------|-----------------------------------------------|
Ab|-3-3-3-3-3-3-3--3--3-3-3-3-3-3-|-/10-10-10-10-/10-10-10-/10-10-10-10-/10-10-10-|
Eb|-------------------------------|-----------------------------------------------|

Interlude 1
Gb|---------------------------|-----------------------------------|
Db|---------------------------|-----------------------------------|
Ab|--7-7---7---7---7----------|-3-3-3-3-3-3-3--3--3-3-3-3-3-3-3---|
Eb|-----0-0-0-0-0-0-0-0-0-0-0-|--------------------------------3--|


Bridge
Pause for 12 bars

Gb|------|--12\--|-------|--12\--|------|-------|------|-------|-------|-------|------|
Db|------|-------|-------|-------|------|-------|------|-------|-------|-------|------|
Ab|-10\--|-------|--10\--|-------|--3\--|-------|--3\--|-------|--10\--|-------|--10\-|
Eb|------|-------|-------|-------|------|-------|------|-------|-------|-------|------|

Gb|--------------------------------|---------------------------------|---------------------------------|
Db|--------------------------------|---------------------------------|---------------------------------|
Ab|-7-7-7-7-7----7-7-7-7-7-7-7-7-7-|-3-3-3-3-3-3-3-3-3-3-3-3-3-3-3-3-|---------------------------------|
Eb|----------0-0-------------------|---------------------------------|-3-3-3-3-3-3-3-3-3-3-3-3-3-3-3-3-|

Gb|--------------------------|------------12-12-12-12-9-9-9-9-|
Db|--------------------------|--------------------------------|
Ab|-/10-10-10-10-10-10-10-10-|-10-10-10-10--------------------|
Eb|--------------------------|--------------------------------|


Chorus 3
Gb|---------------------------------------------|---------------------------------------------|
Db|---------------------------------------------|---------------------------------------------|
Ab|-10-10-10-10-10-10-10--10--10-10-10-10-10-10-|-10-10-10-10-10-10-10--10--10-10-10-10-10-10-|
Eb|---------------------------------------------|---------------------------------------------|

Gb|-------------------------------|-----------------------------------12-12-12-12-9-9-9-9-|
Db|-------------------------------|-------------------------------------------------------|
Ab|-3-3-3-3-3-3-3--3--3-3-3-3-3-3-|-10-10-10-10-10-10-10--10--10-10-10--------------------|
Eb|-------------------------------|-------------------------------------------------------|

Gb|---------------------------------------------|---------------------------------------------|
Db|---------------------------------------------|---------------------------------------------|
Ab|-10-10-10-10-10-10-10--10--10-10-10-10-10-10-|-10-10-10-10-10-10-10--10--10-10-10-10-10-10-|
Eb|---------------------------------------------|---------------------------------------------|

Gb|-------------------------------|---------------------------------------------|
Db|-------------------------------|---------------------------------------------|
Ab|-3-3-3-3-3-3-3--3--3-3-3-3-3-3-|-10-10-10-10-10-10-10--10--10-10-10-10-10-10-|
Eb|-------------------------------|---------------------------------------------|

Interlude 2
Gb|---------------------------|---------------------------------|---------------------------------|---|
Db|---------------------------|---------------------------------|---------------------------------|---|
Ab|--7-7---7---7---7----------|---------------------------------|-3-3-3-3-3-3-3-3-3-3-3-3-3-3-3-3-|-5-|
Eb|-----0-0-0-0-0-0-0-0-0-0-0-|-5-5-5-5-5-5-5-5-5-5-5-5-5-5-5-5-|---------------------------------|---|


Outro
Gb|------------------------------------------------|-----------------------------------12-12-12-12-9-9-9-9-|
Db|------------------------------------------------|-------------------------------------------------------|
Ab|-/10-10-10-10–10-10-10-/10–10-10-10–10-10-10-10-|-/10-10-10-10-10-10-10-/10-10-10-10--------------------|
Eb|------------------------------------------------|-------------------------------------------------------|

Gb|----------------------------------------------------------|---------------------------------|
Db|----------------------------------------------------------|---------------------------------|
Ab|-7-7-7-7-7-7-7--7--7-7-7-7-7-7--7---7---7-7-7-7-7-7-7-7-7-|-3-3-3-3-3-3-3-3-3-3-3-3-3-3-3-3-|
Eb|---------------------------------0-0-0-0------------------|---------------------------------|

Gb|---------------------------------|--------------|-------------|-------------|-------------|---------|
Db|---------------------------------|--------------|-------------|-------------|-------------|---------|
Ab|-5-5-5-5-5-5-5-5-5-5-5-5-5-5-5-5—|-10~~~~~~~~~\-|-------------|-10----------|-------------|-/10~~~~-|
Eb|---------------------------------|--------------|-3-----------|-------------|-3-----------|---------|

************************************

| /   Slide up
| \   Slide Down
| ~   Vibrato

↓ Add and view comments below ↓

What do you think about this song and these tabs?

Add your comments, questions, rant or a thumbs up below.

Almost there ...

Sign in to get your own page with links to favourite songs and more. You are just one click away...

Login with Facebook Login with Google