Log in

One click and you are in

Login with Facebook Login with Google

Why sign up and log in

Guitar Tabs Explorer
The Killers bass tabs for A crippling blow

Bass tabs

Intro:
G|--------------------------------------|
D|--------------------------------------|
A|--------------------------------------| (x4)
E|4---4-4-4---4-/-7---4---4-4-4---4-/-7-|
Verse:
G|--------------------------------------|
D|--------------------------------------|
A|--------------------------------------| (x4)
E|4---4-4-4---4-/-7---4---4-4-4---4-/-7-|


Chorus 1:
G|-----------------------------------------------------------------|
D|---------------4-6-----4-6---4-6-----------------2-2-1-1---------|
A|2------2-2---------6-6-----6-------4-6-----4-6-4---------4-4-2-2-|
E|--2-4------2-4-------------------4-----4-4-----------------------|

G|----------------------------------------------------------------|
D|--------------4-6-----4-6---4-6---------------------------------|
A|2-----2-2---------6-6-----6-------4-6-----4-6-4-6---4-6-6---4-6-|
E|--2-4-----2-4-------------------4-----4-4---------4-------4-----|

G|----------------------------------------------------------------|
D|6---4-6-6---4-6-----------------2-----2-2-----2-2-2-1-1---------|
A|--6-------6-------4-6-----4-6-4---2-4-----2-4-----------4-4-2-2-|
E|----------------4-----4-4---------------------------------------|

G|--------------------------------|
D|2-----2-2-----2-4-----4-4-----4-|
A|--2-4-----2-4-----4-6-----4-6---|
E|--------------------------------|

Interlude:
G|--------------------------------------|
D|--------------------------------------|
A|--------------------------------------| (x4)
E|4---4-4-4---4-/-7---4---4-4-4---4-/-7-|

Verse:
G|--------------------------------------|
D|--------------------------------------|
A|--------------------------------------| (x4)
E|4---4-4-4---4-/-7---4---4-4-4---4-/-7-|


Chorus 2:
G|-----------------------------------------------------------------|
D|---------------4-6-----4-6---4-6-----------------2-2-1-1---------|
A|2------2-2---------6-6-----6-------4-6-----4-6-4---------4-4-2-2-|
E|--2-4------2-4-------------------4-----4-4-----------------------|

G|----------------------------------------------------------------|
D|--------------4-6-----4-6---4-6---------------------------------|
A|2-----2-2---------6-6-----6-------4-6-----4-6-4-6---4-6-6---4-6-|
E|--2-4-----2-4-------------------4-----4-4---------4-------4-----|

G|----------------------------------------------------------------|
D|6---4-6-6---4-6-----------------2-----2-2-----2-2-2-1-1---------|
A|--6-------6-------4-6-----4-6-4---2-4-----2-4-----------4-4-2-2-|
E|----------------4-----4-4---------------------------------------|

G|----------------------------------------------------------------|
D|2-----2-2-----2-4-----4-4-----4-6---4-6-6---4-6-6---4-6-6---4-6-|
A|--2-4-----2-4-----4-6-----4-6-----6-------6-------6-------6-----|
E|----------------------------------------------------------------|


Bridge:
G|------------------------------------------------------------------------------------|
D|------------------------------------------------------------------------------------|
A|4---4-4-4---------------------6---6-6-6--4---4-4-4--------------------6---6-6-6-----|
E|--------------------4---4-4-4-------------------------------4---4-4-4------------4~-|


Instrumental - No Bass:


Chorus 3:
(2:32)
G|-----------------------------------------------------------------|
D|---------------4-6-----4-6---4-6-----------------2-2-1-1---------|
A|2------2-2---------6-6-----6-------4-6-----4-6-4---------4-4-2-2-|
E|--2-4------2-4-------------------4-----4-4-----------------------|

G|----------------------------------------------------------------|
D|--------------4-6-----4-6---4-6---------------------------------|
A|2-----2-2---------6-6-----6-------4-6-----4-6-4-6---4-6-6---4-6-|
E|--2-4-----2-4-------------------4-----4-4---------4-------4-----|

G|----------------------------------------------------------------|
D|6---4-6-6---4-6-----------------2-----2-2-----2-2-2-1-1---------|
A|--6-------6-------4-6-----4-6-4---2-4-----2-4-----------4-4-2-2-|
E|----------------4-----4-4---------------------------------------|

G|----------------------------------------------------------------|
D|2-----2-2-----2-4-----4-4-----4-6---4-6-6---4-6-6---4-6-6---4-6-|
A|--2-4-----2-4-----4-6-----4-6-----6-------6-------6-------6-----|
E|----------------------------------------------------------------|

G|-----------------------------------------------------------------|
D|2-----2-2-----2-4-----4-4-----4-6---4-6-6---4-6------------------|
A|--2-4-----2-4-----4-6-----4-6-----6-------6-----6---4--6-6---4-6-|
E|--------------------------------------------------4--------4-----|

G|-----------------------------------------------------------------|
D|2-----2-2-----2-4-----4-4-----4-6-----6-6-----6------------------|
A|--2-4-----2-4-----4-6-----4-6-----6-4-----6-4---6---4--6-6---4-6-|
E|--------------------------------------------------4--------4-----|

G|--------------------------------|
D|2-----2-2-----2-4-----4-4-----4-|
A|--2-4-----2-4-----4-6-----4-6---|
E|--------------------------------|


Outro - No Bass:


************************************

| /   Slide up
| ~   Vibrato

↓ Add and view comments below ↓

What do you think about this song and these tabs?

Add your comments, questions, rant or a thumbs up below.

Almost there ...

Sign in to get your own page with links to favourite songs and more. You are just one click away...

Login with Facebook Login with Google