Log in

One click and you are in

Login with Facebook Login with Google

Why sign up and log in

Guitar Tabs Explorer
Kill Hannah tabs for Nerve gas

Guitar tabs

I declare this file is all my own work.
Title: Nerve Gas
Album: AJS

INTRO/CHORUS (guitar one)
-|---------------------------------|x6|------------------------------------x2-
-|---------------------------------|--|---------------------------------------
-|-6-6-6-6-4-4-4-4-2-2-2-2-2-2-2-2-|--|-6--4--2-2-2-2---------2-2-2-2---------
-|-6-6-6-6-4-4-4-4-2-2-2-2-2-2-2-2-|--|-6--4--2-2-2-2-2-2-2-2-2-2-2-2-2-2-2-2-
-|-4-4-4-4-2-2-2-2-0-0-0-0-0-0-0-0-|--|-4--2--0-0-0-0-2-2-2-2-0-0-0-0-2-2-2-2-
-|---------------------------------|--|---------------0-0-0-0---------0-0-0-0-
INTRO/CHORUS (guitar two)
-|-12--14--17--12--14--17--19--17--14--17--19--17--14--17--12-14-12-14-12-14--
-|----------------------------------------------------------------------------
-|----------------------------------------------------------------------------
-|----------------------------------------------------------------------------
-|----------------------------------------------------------------------------
-|----------------------------------------------------------------------------


--14-16-14-16-19-16-14-16-12-|--
-----------------------------|--
-----------------------------|--
-----------------------------|--
-----------------------------|--
-----------------------------|--


VERSE chords  (listen to song for strumming pattern)
-|---------------|x2|---------------|--
-|---------------|--|---------------|--
-|-9---4---6---2-|--|-4---2---4---2-|--
-|-9---4---6---2-|--|-4---2---4---2-|--
-|-7---2---4---0-|--|-2---0---2---0-|--
-|---------------|--|---------------|--

Almost there ...

Sign in to get your own page with links to favourite songs and more. You are just one click away...

Login with Facebook Login with Google