Log in

One click and you are in

Login with Facebook Login with Google

Why sign up and log in

Guitar Tabs Explorer
Kids See Ghosts guitar chords for Feel the love

Guitar chords with lyrics

  • Capo on 5th
Tuning: Standard (E A D G B E)

Kids See Ghosts: "Feel The Love"
Intro:
  A chord diagramG minorGm                                A chord diagramG minorGm
e|----------------|----------------|----------------|----------------|
B|----------------|----------------|----------------|----------------|
G|0-----------0---|0---------------|0-----------0---|0---------------|
D|0-----------0---|0---------------|0-----------0---|0---------------|
A|1-----------1---|1---------------|1-----------1---|1---------------|
E|3-----------3---|3-------1-/-3---|3-----------3---|3-------1-/-3---|


Chorus:
  A chord diagramG minorGm                                A chord diagramG minorGm
e|----------------|----------------|----------------|----------------|
B|----------------|----------------|----------------|----------------|
G|----------------|----------------|----------------|----------------|
D|0---------------|0---------------|0---------------|0---------------|
A|1---------------|1---------------|1---------------|1---------------|
E|3---------------|3-------1-/-3---|3---------------|3-------1-/-3---|
  A chord diagramG minorGm                                A chord diagramG minorGm
e|----------------|----------------|----------------|----------------|
B|----------------|----------------|----------------|----------------|
G|0-----------0---|0---------------|0-----------0---|0---------------|
D|0-----------0---|0---------------|0-----------0---|0---------------|
A|1-----------1---|1---------------|1-----------1---|1---------------|
E|3-----------3---|3-------1-/-3---|3-----------3---|3-------1-/-3---|

A chord diagramG minorGm
   I can still feel the love
A chord diagramG minorGm
   I can still feel the love
A chord diagramG minorGm
   I can still feel the love
A chord diagramG minorGm
   Feel the love


Verse:
A chord diagramG minorGm 
   We not worried 'bout no other niggas, we them other niggas
A chord diagramG minorGm
   You bust down a Rollie, I bust down a brick, then I flood it, nigga
A chord diagramG minorGm
   I am not to be compared to you rappers, Eazy-Duz-It, nigga
A chord diagramG minorGm
   I am more Eazy, you tryin’ your best to become me, nigga
   A chord diagramG minorGm
   She like them bottles with bubbles in it
   A chord diagramG minorGm
   Buy her Loewe and other linen
   A chord diagramG minorGm
   Why would I wait when there's other women?
   A chord diagramG minorGm
   Why would I hate? We in love with winnin' (ooh)
A chord diagramG minorGm
   Buy her bundles, fly her out, bring her friend, I try her out
A chord diagramG minorGm
   Ain’t no worries findin' out, the details is ironed out
A chord diagramG minorGm
   Easily they plays along, hopin' that I play a song
A chord diagramG minorGm
   Love to fuck to trap music (feel the love)
       A chord diagramG minorGm
   Grrrat-gat-gat-gat-gat

   Dope money just came along (woo)


Chorus: Kanye West & Kid Cudi:
       A chord diagramG minorGm
Grrrat-gat (I can still feel the love)
    A chord diagramG minorGm
Gat-gat, gat, ga-gat-ga-ga-gat
    A chord diagramG minorGm
Grrrat, gat-gat-gat (I can still feel the love)
            A chord diagramG minorGm
Gat-gat-gat-gat-gat-gat-gat, grrrat
            A chord diagramG minorGm
Gat-gat-gat-gat (feel the love)
      A chord diagramG minorGm
Ga-ga-gat, ga-gat, ga-gat, ga-gat-gat, grrrat


Bridge:
A chord diagramG minorGm
   Ba-ba-ba-ba
       A chord diagramG minorGm
   Brrrat-tat-da-da-da, da
A chord diagramG minorGm
   Ga-ga-ga-ga
        A chord diagramG minorGm
   Brrr-ah-da-da-da, brrr-ah-da-da-da
                     A chord diagramG minorGm
   Brrr-ah-da-da-da, brrr-ah-da-da-da
                A chord diagramG minorGm
   Brrr-ah-brrr-ah, brrr-ah-ga-grrrat
N.C.
   Ru-ru-ru-ru-woo!


Break:
A chord diagramG minorGm


Pre-Chorus: Kanye West:
A chord diagramG minorGm
   Where the chorus?


Chorus: Kid Cudi & Kanye West:
A chord diagramG minorGm
   I can still feel the love
A chord diagramG minorGm
   I can still feel the love
A chord diagramG minorGm
   I can still feel the love
A chord diagramG minorGm
   Feel the love
A chord diagramG minorGm
   Woo!
A chord diagramG minorGm
   I can still feel the love
A chord diagramG minorGm
   I can still feel the love
A chord diagramG minorGm
   I can still feel the love
A chord diagramG minorGm
   I can still feel the love
A chord diagramG minorGm
   I can still feel the love
A chord diagramG minorGm
   Ba-ba-ba-ba-ba-ba-ba
A chord diagramG minorGm
   Ba-ba-ba-ba
N.C.
   Ru-ru-ru-ru-woo!

↓ Add and view comments below ↓

What do you think about this song and these chords?

Add your comments, questions, rant or a thumbs up below.

Almost there ...

Sign in to get your own page with links to favourite songs and more. You are just one click away...

Login with Facebook Login with Google