Log in

One click and you are in

Login with Facebook Login with Google

Why sign up and log in

Guitar Tabs Explorer
Kid Rock tabs for So hott

Guitar tabs

Kid Rock - So Hott
Tabbed by:  Jeff Martin

Tuning:  Drop A chord diagramD MajorD
Intro:
Guitar 1: (Rhythm #1)
|----------------------------------------------------------|
|----------------------------------------------------------|
|----------------------------------------------------------|
|----------------------------------------------------------|
|-0-3-0-6/5-0-3-0-0-0-3-0----0-3-0-6/5-0-3-0-xxxxx---------|
|-0-3-0-6/5-0-3-0-0-0-3-0----0-3-0-6/5-0-3-0-xxxxx---------| x4>>>>

>>>>Guitar 1: (Rhythm #2)
|------------------------------------|
|------------------------------------|
|------------------------------------|
|------------------------------------|
|-0-0-3-0-6-5-3-0-0-3-0-6-5-3--------|
|-0-0-3-0-6-5-3-0-0-3-0-6-5-3--------| x4>>>>

Guitar 2: (lead fill #1)

|-------------------------------------------------------------------------------|
|----10-12-12b13b12-10-------10-12-12b13b12-10----10-12-12b13------12b13--------|
|----10-12-12b13b12-10-------10-12-12b13b12-10----10-12-12b13b12-10-------------|
|-12--------------------12-12--------------------12-----------------------------|
|-------------------------------------------------------------------------------|
--------------------------------------------------------------------------------|

>>>>Guitar 1: (Rhythm #3)
|-------------------------|
|-------------------------|
|--------------5----------|
|--------------5----------|
|-0-0-0h3-3-3-3-5-3-------|
|-0-0-0h3-3-3---5-3-------| x4

VERSE 1:
Guitar 1: (Rhythm #4)
|--------------------------------------|
|--------------------------------------|
|--------------------------------------|
|--------------------------------------|
|-0-hold---0-3-0-6/5-0-3-0-xxxxx-------|
|-0-hold---0-3-0-6/5-0-3-0-xxxxx-------| x2
***do not play the 1st  note the 2nd time***


CHORUS 1
Guitar 1:  (Rhythm #3)
|-------------------------|
|-------------------------|
|--------------5----------|
|--------------5----------|
|-0-0-0h3-3-3-3-5-3-------|
|-0-0-0h3-3-3---5-3-------| x3>>>>

>>>>Guitar 1: (Rhythm #1) x2


VERSE 2
Guitar 1: (Rhythm #5)
|------------------------|
|------------------------|
|------------------------|
|------------------------|
|-0-3-0-6/5-0-3-0--------|
|-0-3-0-6/5-0-3-0--------| x2


CHORUS 2:
Guitar 1: (Rhythm #3) x3


SOLO: ( Guitar 2: I will tab later... or feel free...)
Guitar 1: (Rhythm #3) for the rest of the song.

Other versions of So Hott

So hott (Ver. 2)Tabs

Almost there ...

Sign in to get your own page with links to favourite songs and more. You are just one click away...

Login with Facebook Login with Google