Log in

One click and you are in

Login with Facebook Login with Google

Why sign up and log in

Guitar Tabs Explorer
Kid Rock bass tabs for Johnny cash

Bass tabs with lyrics

Album: First Kiss (2015)


🏷Legend:
r = rest
h = hammer on
/ = slide up
\ = slide down

INTRO:               (x2)
    (Rest x4)       s sssss      s sss
G |-----------------||-----------------|-----------------|
D |-----------------||-----------------|-----------------|
A |-----------------||-3---r--3r3---3--|-5---r--5r5--5---|
E |-r---------------||-----------535-5-|-----------75--7\|
  1 & 2 & 3 & 4 &  1 & 2 & 3 & 4 &  1 & 2 & 3 & 4 &


VERSE 1:
             (Rest x7)
G |-----------------||-----------------|
D |-----------------||-----------------|
A |-3---r-----------||-----------------|
E |-----------------||-r---------------|
  1 & 2 & 3 & 4 &  1 & 2 & 3 & 4 &


PRE-VERSE:
      s s s s     s s s s
G |---------------------------------|-----------------|
D |-------------5-------------------|-----------------|
A |-3-------5h7-----------------5h7-|-5---------------|
E |---------------3-r-3-----5h7-----|-----------------|
  1  &  2  &  3  &  4  &   1 & 2 & 3 & 4 &


VERSE 2:
         (x3)
      s sssss      s sss     (Rest x2)
G |-----------------|-----------------||-----------------|
D |-----------------|-----------------||-----------------|
A |-3---r--3r3--3---|-5---r--5r5--5---||-----------------|
E |-----------53--5-|-----------75--7\||-r---------------|
  1 & 2 & 3 & 4 &  1 & 2 & 3 & 4 &  1 & 2 & 3 & 4 &


CHORUS 1:
         (x3)
    ssss         s sss       s         s sss
G |-----------------|-----------------||-----------------|-----------------|
D |-----------------|-----------------||-----------------|-----------------|
A |-3---3-------2-3-|-5---r--5r5--5---||-3---r--3--------|-5---r--5r5--5---|
E |------653r3------|-----------75--7\||---------3---r-3-|-----------75--7\|
  1 & 2 & 3 & 4 &  1 & 2 & 3 & 4 &  1 & 2 & 3 & 4 &  1 & 2 & 3 & 4 &


PRE-VERSE:
    (Rest x2)
G |-----------------|
D |-----------------|
A |-----------------|
E |-r---------------|
  1 & 2 & 3 & 4 &


VERSE 3:
         (x4)
      s sss       s sss
G |-----------------|-----------------|
D |-----------------|-----------------|
A |-3---r--3r3--3---|-5---r--5r5--5---|
E |-----------53--5-|-----------75--7\|
  1 & 2 & 3 & 4 &  1 & 2 & 3 & 4 &


CHORUS 2:
         (x3)
    ssss         s sss       s         s sss
G |-----------------|-----------------||-----------------|-----------------|
D |-----------------|-----------------||-----------------|-----------------|
A |-3---3-------2-3-|-5---r--5r5--5---||-3---r--3--------|-5---r--5r5--5---|
E |------653r3------|-----------75--7\||---------3---r-3-|-----------75--7\|
  1 & 2 & 3 & 4 &  1 & 2 & 3 & 4 &  1 & 2 & 3 & 4 &  1 & 2 & 3 & 4 &

      s         s sss       s
G |-----------------|-----------------|-----------------|-----------------|
D |-----------------|-----------------|-----------------|-----------------|
A |-3---r--3--------|-5---r--5r5--5---|-3---r--3--------|-5---r-----------|
E |---------3---r-3-|-----------75--7\|---------3---r-3-|-----------------|
  1 & 2 & 3 & 4 &  1 & 2 & 3 & 4 &  1 & 2 & 3 & 4 &  1 & 2 & 3 & 4 &


GUITAR SOLO (x2):                    _________________ _________________
                            /1        /2
    ssss         s sss       s    |    s sss  |
G |-----------------|-----------------|-----------------|-----------------|-----------------|
D |-----------------|-----------------|-----------------|-----------------|-----------------|
A |-3---3-------2-3-|-5---r--5r5--5---|-3---3-------2-3-|-5---r--5r5--5---|-5---------------|
E |------653r3------|-----------75--7\|--------3r3------|-----------75--7\|-----------------|
  1 & 2 & 3 & 4 &  1 & 2 & 3 & 4 &  1 & 2 & 3 & 4 &  1 & 2 & 3 & 4 &  1 & 2 & 3 & 4 &


VERSE 4:
         (x3)                                 ss
G |-----------------|-----------------||-----------------|-----------------|/5-7-7-7-7-7-7---|
D |-----------------|-----------------||-----------------|-----------------|--------------7--|
A |-3---------------|-5---------------||-3---------------|-5-5-5-5-5-5-5-5-|---------------5\|
E |-----------------|-----------------||-----------------|-----------------|-----------------|
  1 & 2 & 3 & 4 &  1 & 2 & 3 & 4 &  1 & 2 & 3 & 4 &  1 & 2 & 3 & 4 &  1 & 2 & 3 & 4 &


CHORUS 3:
   (Rest x7)          ss
G |-----------------||/5-7-7-7-7-7-7---|
D |-----------------||--------------7--|
A |-----------------||---------------5\|
E |-r---------------||-----------------|
  1 & 2 & 3 & 4 &  1 & 2 & 3 & 4 &


CHORUS 4:
         (x3)
    ssss         s sss      ssss       sss
G |-----------------|-----------------||-----------------|-------57/9--7-\-|
D |-----------------|-----------------||-----------------|-----57----------|
A |-3---3-------2-3-|-5---r--5r5--5---||-3---3-------2-3-|-5---------------|
E |------653r3------|-----------75--7\||------653r3------|-----------------|
  1 & 2 & 3 & 4 &  1 & 2 & 3 & 4 &  1 & 2 & 3 & 4 &  1 & 2 & 3 & 4 &


OUTRO:
    ssss       s s sss     ssss       s ss s
G |-----------------|-----------------|-----------------|-----------------|
D |-----------------|-----------------|-----------------|----------7--7---|
A |-3---3-------2-3-|-5---r--5r5--5---|-3---3---------3-|-5---r--79--9--9\|
E |------653r3------|-----------75--7\|------653r3--5---|-----------------|
  1 & 2 & 3 & 4 &  1 & 2 & 3 & 4 &  1 & 2 & 3 & 4 &  1 & 2 & 3 & 4 &

    ssss       s s sss            (Let ring)
G |-----------------|-----------------|-----------------|-----------------|
D |-----------------|-----------------|-----------------|-----------------|
A |-3---3-------2-3-|-5----r-5r5--5---|-3-------2-----/-|-5---------------|
E |------653r3------|-----------75--7\|-----------------|-----------------|
  1 & 2 & 3 & 4 &  1 & 2 & 3 & 4 &  1 & 2 & 3 & 4 &  1 & 2 & 3 & 4 &
ⓘ Bass guitar tab for 'Johnny Cash' by Kid Rock, a male hard rock artist from Detroit, USA. Kid Rock was born in 1971. Kid Rock is known for his boisterous rock/pop music.

Almost there ...

Sign in to get your own page with links to favourite songs and more. You are just one click away...

Login with Facebook Login with Google