Log in

One click and you are in

Login with Facebook Login with Google

Why sign up and log in

Guitar Tabs Explorer
Kid Rock tabs for Fuck off

Guitar tabs

this is the little riff in the middle of the song.
drop d tuning for this.

/= slide
x+mute note with left hand


e---------------------------------------------------------|
b---------------------------------------------------------|
g---------------------------------------------------------|
d-0---3---5---5/7--00x010x0x-00001000---------------------|
a-0---3---5---5/7--00x010x0x-00001000---------------------|
d-0---3---5---5/7--00x010x0x-00001000---------------------|
                          pm........
e---------------------------------------------------------|
b---------------------------------------------------------|
g---------------------------------------------------------|
d-0---3---5---5/7-----------------------------------------|
a-0---3---5---5/7-----pickslide---------------------------|

Almost there ...

Sign in to get your own page with links to favourite songs and more. You are just one click away...

Login with Facebook Login with Google