Log in

One click and you are in

Login with Facebook Login with Google

Why sign up and log in

Guitar Tabs Explorer
Kid Rock tabs for Forever

Guitar tabs with lyrics

Guitars 1&3 are standard tuning
Guitar 2 is open A chord diagramG+G tuning (low to high DGDGBD)


Riff A chord diagramA augmentedA intro Guitar 1      Guitar 2 clean tone w/slide
(with dist)
p.m""""    """""""""
--------------------------  ---3:-///-9:- 9---9--(9)---
--------------------------  ---------------------------
--------------------------  ---3:-///-9:--9-------------
---------2----------------  ---------------------------
-22-222-------------------  ---------------------------
-00-030----0-0-0-3-0------  ---------------------------

GUitar 3 w/dist Riff A chord diagramD MajorD

-5p--3p--0--0----------------------------------------------
---------------5p--3p--0--0--------------------------------
------------------------------0--2hp--0--------------------
-----------------------------------------2--0-2hp-0--------
-----------------------------------------------------2--2--
--------------------------------------------------------0--


Chorus Riff A chord diagramC majorC
Guitar 2 (w/dist and slide)
play 2 times
         ~~~~~~~~~~~~~~~
--------------------------------------------------------
--------------------------------------------------------
--------------------------------------------------------
--/14----14-----(14)----/12--(12)----12------12---------
--------------------------------------------------------
--------------------------------------------------------
    tree  top    you wanna roll with the kid rock
      ~~~~~
--------------------------------------------------------
--------------14----12----------------------------------
--------------------------------------------------------
--/14----14------------12---(12)---12---12--------------
--------------------------------------------------------
--------------------------------------------------------

       ~~~~~~~~~~~~~~~~~~~~~~~~~
--------------------------------------------------------
--------------------------------------------------------
-------14------14---(14)------14--------14--------------
-/14-------14-------------14----------------------------
--------------------------------------------------------
--------------------------------------------------------

(order of chorus solo by guitar 2)

riff c 1st soloX2,2nd solo,3rd solo then 2nd solo

Guitar 1 Then plays Riff A chord diagramA augmentedA

-------------------------
-------------------------
-------------------------
---------2---------------
-22-222------------------
-00-030----0-0-0-3-0-----

theres a little solo here by GUitar 3

                                       Gradual Release
still the same      cause i  aint  changin nothin
--------------------------------1/2-----------------------
---------------------------------<-->--->-----------------
---------------------------------<----------->------------
---------------------------------<---------------->--->---
-------------------------------12<----------(12)-----(12)-
---------------------------------------------------------

this things sound cool in the song

Guitar 1or3 ?? pretty sure 3

   full  hold bend""""""""""
-12:^--12---12---12/--------------------------------------
-15:---15---15---15/--------------------------------------
----------------------------------------------------------
----------------------------------------------------------
----------------------------------------------------------
----------------------------------------------------------


Riff A chord diagramD MajorD 2X (when it goes)
and like kids on monkey bars i'm still swingin (1st time)
trim fit rich and i'm back for round two(2nd time)

Guitar 3 w/tone knob down

--12:--------12--------15------------
--15:--------14--------16------------
--------12---------12----------------
-------------------------------------
-------------------------------------
-------------------------------------


Interlude Guitar 1

--------------------------5----------
--------------------------5----------
-------------------------------------
-2-----------0---2-------------------
-2---X---2-------2--2----------------
-0---X---0----------0----------------

Guitar 3 w/fuzz       full
-----------------------^-------------------------------
-----------------------^-------------------------------
-7-9--(9)---9--7-------^-------------------------------
------------------9---7^---7(7)\5----------------------
----------------------------------7--(7)---5--5--5---5-
-------------------------------------------------------

This part is Great it sounds sweeeet

Guitar 3 (w/dist and delay)

--------------------------------------------------------
-11/12---(12)-----12h11----11-----------------11h12--(12)
------------------------12----12--11:---11h12-----------
--------------------------------------------------------
--------------------------------------------------------
--------------------------------------------------------

--------------------------------------------------------
-12/15--15--15---15\14---14---14\12---12\11---11\12-----
--------------------------------------------------------
--------------------------------------------------------
--------------------------------------------------------
--------------------------------------------------------

Guitar 3

this is when rock says
butyou can't fuck with rhymes like these)
  full    full    full   full
-12^-----12^-----12^----12^----------
-15^-----15^-----15^----15^----------
-------------------------------------
-------------------------------------
-------------------------------------
-------------------------------------

Guitar 1

(thumpin like a drum kit with riff that split picks)

-------------------------------------
-------------------------------------
-------------------------------------
-------------------------------------
-2--2-----2--------------------------
-0--0--3--0--------------------------

Guitar 3 (SOLO TYPE THING)

---------------15^---15^---15^---15^--(15)--12-----12------
------15--12-----------------------------------15^----15-12
-14^-------------------------------------------------------
-----------------------------------------------------------
-----------------------------------------------------------
-----------------------------------------------------------

-------------------------------------
---------15^--15^--------------------
--14^----14^--14^----(14)---12-------
--------------------------------14\\-
-------------------------------------
-------------------------------------

the outro has guitar 1 playin riff A chord diagramA augmentedA andGuitar 3 playin this

-----------12-------------------------------
--15^-(15)----15-12-------------------------
--------------------14^-14-12-14--14-12-----
--------------------------------------------
--------------------------------------------
--------------------------------------------

This is my first tab but its the whole song and its right if u think it isn't right then
u got problems see ya

Almost there ...

Sign in to get your own page with links to favourite songs and more. You are just one click away...

Login with Facebook Login with Google