Log in

One click and you are in

Login with Facebook Login with Google

Why sign up and log in

Guitar Tabs Explorer
Kid Rock tabs for Cowboy

Guitar tabs

Title: Cowboy
Album: Devil without a cause
Tabbed by: Piotr "Blochoo" Bloch
E-mail:blochoo@wp.pl


Intro-clean =20

|----x--x--x--x----|------------------|------------------||
|----x--x--x--x----|------------------|------------------||
|----x--x--x--x----|------------------|------------------||
|----x--x--x--x----|----5s7---7--7----|----x--5--x--7----||
|----x--x--x--x----|----5s7---7--7----|----x--5--x--7----||
|----x--x--x--x----|----3s5---5--5----|----x--3--x--5----||=20


Bridge=20

|-------------------|
|-------------------|
|-------------------|
|-------------12~---|
|-------------12~---|
|---5----8----10~---| =20


Fill=20

|----------------|---------------|----------------|----------------|
|----------------|---------------|----------------|----------------|
|-------------2--|---2-----------|--2-------------|-------------2--|
|-2-----2b4------|-----4p2-------|------2----2----|-2-----2b4------|
|-0--0-----------|----------3b4--|------0----0----|-0--0-----------|
|----------------|---------------|----------------|----------------| =20


|----------------|---------------|----------------|----------------|
|----------------|---------------|----------------|----------------|
|-2--4---2-2b4-2-|-------------2-|----2-----------|---2------------|
|----------------|-2-----2b4-----|------4p2-------|-------2----2---|
|----------------|-0--0----------|-----------3b4--|-------0----0---|
|----------------|---------------|----------------|----------------|=20


|------------------|------------------|------------------||
|------------------|------------5-----|----5-------------||
|--------------2---|-----2-4s6--6-----|---(6)--4s2--2----||
|--2-----2b4-------|------------------|------------------||
|--0--0------------|------------------|------------------||
|------------------|------------------|------------------|| =20

Give a toast to the sun...

|-------3-----2--|----0-----------|------3-----5---|-----5-----------|
|-------3-----3--|----3----3------|------3-----3---|-----3----3------|
|--2--2----2-----|-2-----------2--|-2--2----2------|--2-----------2--|
|--0-------------|----------------|-0--------------|-----------------|
|----------------|----------------|----------------|-----------------|
|----------------|----------------|----------------|-----------------| =20


|-------3-----2--|----0-----------|-------3-----2--|--2-------------||
|-------3-----3--|----3----3------|-------3-----3--|-------3--------||
|--2--2----2-----|-2-----------2--|--2--2----2-----|------------2---||
|--0-------------|----------------|--0-------------|----------------||
|----------------|----------------|----------------|----------------||
|----------------|----------------|----------------|----------------|| =20


Chorus - disort.
|----x--x--x--x----|------------------|------------------||
|----x--x--x--x----|------------------|------------------||
|----x--x--x--x----|------------------|------------------||
|----x--x--x--x----|----5s7---7--7----|----x--5--x--7----||
|----x--x--x--x----|----5s7---7--7----|----x--5--x--7----||
|----x--x--x--x----|----3s5---5--5----|----x--3--x--5----||


Bridge=20
|-------------------|
|-------------------|
|-------------------|
|-------------------|
|----------------9~~|
|---10b11p10b11-----| =20


Yeah, Kid Rock you can call me...
|-------------------|------------------||
|-------------------|------------------||
|-------------------|------------------||
|-----7------7------|--10--10--10--10--||
|-----7------7------|--10--10--10--10--||
|-----5------5------|--8---8---8---8---||


Cause chaos...
|-------------------|-------------------||
|-------------------|-------------------||
|-----7------7------|-----7------7------||
|-----7------7------|-----7------7------||
|-----5------5------|-----5------5------||
|-------------------|-------------------||
ⓘ Guitar tab for 'Cowboy' by Kid Rock, a male hard rock artist from Detroit, USA. Kid Rock was born in 1971. Kid Rock is known for his boisterous rock/pop music.

Almost there ...

Sign in to get your own page with links to favourite songs and more. You are just one click away...

Login with Facebook Login with Google