Log in

One click and you are in

Login with Facebook Login with Google

Why sign up and log in

Guitar Tabs Explorer
Kid Rock tabs for All summer long

Guitar tabs

Kid Rock:All Summer Long

Tuning:EADGBE
The song is a mix of Werewolves of London and
Sweet Home Alabama so i just but both together and here it is.
Tabbed By:Peyton Roberts


-----------------------------------
----------------------------------
----------------------------------
-9--7--7--5------------------------
-5--5--3--3--5--5--7--5------------
-------------3--3--3--3------------
Play this for most of the song

------------------------------------------------
--------3-------------------3--------------------
----------2------------------0------------0-----
-0-0--------0-----------------0----------------
-------------------3-3---------------------------
-----------------------------------3-3-----------

ⓘ Guitar tab for 'All Summer Long' by Kid Rock, a male hard rock artist from Detroit, USA. Kid Rock was born in 1971. Kid Rock is known for his boisterous rock/pop music.

Other versions of All Summer Long

All summer longTabs
All summer long (Ver. 2)Tabs

Almost there ...

Sign in to get your own page with links to favourite songs and more. You are just one click away...

Login with Facebook Login with Google