Log in

One click and you are in

Login with Facebook Login with Google

Why sign up and log in

Guitar Tabs Explorer
Kid Rock tabs for All summer long

Intro

h= hammer-on

beginning
repeat 4x's
e|-2--0-0--3-3|
b|-3--1-1---0-0|
g|-2--0-0--0-0|
d|-0--2-2--0-0|
a|----3-3--2-2|
e|----0-0--3-3|

intro
e|-----2----------|
b|-------3--------|
g|----------------|
d|-0-0-----2-----|
a|-----------3-3--|
e|----------------|
still intro...
e|-0---------3-|
b|---1---------|
g|-------------|
d|-------------|
a|-----2-------|
e|-------3-3---|
............................................
e|---------------|
b|---------------|
g|---------------|
d|-----0-2------2|
a|-0h2------0h2-|
e|---------------|

ⓘ Guitar tab for 'All Summer Long' by Kid Rock, a male hard rock artist from Detroit, USA. Kid Rock was born in 1971. Kid Rock is known for his boisterous rock/pop music.

Other versions of All Summer Long

All summer longTabs
All summer long (Ver. 2)Tabs

Almost there ...

Sign in to get your own page with links to favourite songs and more. You are just one click away...

Login with Facebook Login with Google