Log in

One click and you are in

Login with Facebook Login with Google

Why sign up and log in

Guitar Tabs Explorer
Kid Rock tabs for Abortion

Guitar tabs

Album: The History of Rock
tabbed by Eric Guerra

Tablature Explanation:
h=hammer-on
p=pull-off
/=slide up or indicates rapid picking
\=slide down
b=bend 1 semitone
r=release bend

Standard Tuning

This is the first tab i've ever written, all my own work, took a couple of hours for me to write, but i'm positive that it's around 98 percent correct.

Chords
----------
----------
-6-6-x4-2-
-6-6-x4-2-
-4-4-x2-0-
----------


Intro
------------------------------------------------------
------------------------------------------------------
----------9-11b12--12r11-11p9-------------9-11-9------
-11/5--11---------------------7/11-11-9h11-------9/11-
------------------------------------------------------
------------------------------------------------------

------------------------------------------
------------------------------------------
-9-11-11b12r-11-11b12r-9-9-8-9-8----------
----------------------------------9-7/11\-
------------------------------------------
------------------------------------------

...love inside
-------------
-9-9-x-9-----
-9-9-x-9-----
---------11\-
-------------
-------------

I know your...
-----------------------------
-----------------------------
-11b12r-11b12r-11b12r-11b12r-
-----------------------------
-----------------------------
-----------------------------

...see them too
---------------------------------------
---------------------------------------
--------------9-11-9-11b12r-9-9-9h11p9-
-7/11-11-9h11--------------------------
---------------------------------------
---------------------------------------

-------------------------------------12----12----14b15r-
-------------------------12-14-12h14----14----14--------
-11-11b12r-9-11b12r-9-----------------------------------
----------------------11--------------------------------
--------------------------------------------------------
--------------------------------------------------------

-14b15r--14-12----------------------------------------------
----------------14-12-9-------------------------------------
------------------------11-9-11-12-11-9h11p9-8h9p8----------
---------------------------------------------------11-9/11\-
------------------------------------------------------------
------------------------------------------------------------

...sometime
-------------
-9-9-x-9-----
-9-9-x-9-----
---------11\-
-------------
-------------

...missing you
----------------------12-14b15r----------------------
------------12-14-14---------------------------------
-----------------------------------------------------
-----------------------------------------------2-2-2-
-1/4-----------------------------------1/7-2-4-------
-----------------------------------------------------

..and if i do
-----4-----2---0---0---0-------4-----2---0-----------------
---5-----2-----0-------------5-----2-----0---9--x-9-9------
-6-----4-----2---2---2---2-6-----4-----2-----9--x-9-9------
------------------------------------------------------9/11-
-----------------------------------------------------------
-----------------------------------------------------------

...now wheres my gun
-14b15--------------------------------------------------------------
--------9--9-x-9-x-9-9----------------------------------------------
--------9--9-x-9-x-9-9---------9----9h11-11b12rrr-11p9--------9-----
-----------------------11-9h11---11--------------------11-9h11---11-
--------------------------------------------------------------------
--------------------------------------------------------------------

-----------------------------12-14b15//-14-12----------12----------
----------------12-14--12h14------------------14-12h14----14-12h14-
------9------------------------------------------------------------
-9h11---11-9h11----------------------------------------------------
-------------------------------------------------------------------
-------------------------------------------------------------------

-----------------------------
-12\9------------------------
------11-9-11/12-11-9-9------
------------------------9/11-
-----------------------------
-----------------------------

Let me open...
------------------------------------------------
------------------------------------------------
-----------------------------9-11b-/-/-r-r-9----
-44444444444444---9-11--9-11-----------------11-
-44444444444444---------------------------------
-22222222222222---------------------------------

The second coming...
-------------------------------12-14b-/-/-14b15-14b15--14p12---------12----
------------------12-14--12-14------------------------------14-12h14----14-
---------------------------------------------------------------------------
-44444444444444------------------------------------------------------------
-44444444444444------------------------------------------------------------
-22222222222222------------------------------------------------------------

-------12-------------12-12x12x1212-------121212121212121212-
-12h14----14-12-12h14-12-12x12x1212-12h14-121212121212121212-
-------------------------------------------------------------
-------------------------------------------------------------
-------------------------------------------------------------
-------------------------------------------------------------

-----------------------------------------------
-12/14-12\9---------9--9x9x9--9-----9----------
------------11-9----9--9x9x9--9-----9----------
-----------------11---------11--11-----11-9/11-
-----------------------------------------------
-----------------------------------------------

Let me open...
------------------------------------------------
------------------------------------------------
-----------------------------9-11b-/-/-r-r-9----
-44444444444444---9-11--9-11-----------------11-
-44444444444444---------------------------------
-22222222222222---------------------------------

The second coming...
------------------------------12-14b-/-/-14b15-14-
------------------12-14-12-14---------------------
--------------------------------------------------
-44444444444444-----------------------------------
-44444444444444-----------------------------------
-22222222222222-----------------------------------

--------------------------------------
-9-7-------------9------9-------------
-9-7------9-11b----11b----11b--9------
-----9h11------------------------9h11-
--------------------------------------
--------------------------------------

lonely...
------12--------12----------12--14b-b-bbbbb-12----------12----------
-12h14--14-12h14--14-12h14---------------------14-12h14----14-12h14-
--------------------------------------------------------------------
--------------------------------------------------------------------
--------------------------------------------------------------------
--------------------------------------------------------------------

-12x12x1212x12-------12x12x12----------
-12x12x1212x12-12h14-12x12x12-14-12h14-
---------------------------------------
---------------------------------------
---------------------------------------
---------------------------------------

------------------------------------------
------------------------------------------
-9-9-9-9-8------------9-9-9-9-8-----------
-----------11-9-9/11------------11-9-9/11-
------------------------------------------
------------------------------------------

-12-12-12-12-11--------------12-12-12-12-11-------------
----------------14-12-12/14-----------------14-12-12/14-
--------------------------------------------------------
--------------------------------------------------------
--------------------------------------------------------
--------------------------------------------------------

-----4-----2---0-
---5-----2-----0-
-6-----4-----2---
-----------------
-----------------
-----------------
--

Almost there ...

Sign in to get your own page with links to favourite songs and more. You are just one click away...

Login with Facebook Login with Google