Log in

One click and you are in

Login with Facebook Login with Google

Why sign up and log in

Guitar Tabs Explorer
Kid Cudi guitar tabs for Up up away

Guitar tabs with lyrics

-------------------------------------------------------------------------------
			     UP UP & AWAY - Kid Cudi
-------------------------------------------------------------------------------
Tabbed by:  Unavailable User
Tuning: Standard


Intro:  This intro is 100% correct
e|----------------------------------------------------------|
B|----------------------------------------------------------|
G|-10-10-8--8-10-10--11-10--8-------------------------------|
D|--x--x-x--x--x--x---x--x--x-------------------------------|
A|--8--8-6--6--8--8---9--8--6-------------------------------|
E|----------------------------------------------------------|
           ^This sounds like 3 notes, but it is just the delay
            You can play it however you want if you don't have delay

e|----------------------------------------------------------|
B|----------------------------------------------------------|
G|-10-10--x--8-10-10--10-10--8------------------------------|
D|--x--x--x--x--x--x---x--x--x------------------------------|
A|--8--8--8--6--8--8---8--8--6------------------------------|
E|----------------------------------------------------------|


Intro plays throughout the song


Verse:

((((The notes on strings e and A chord diagramBB are not always played, listen to the song to see what i mean
e|-(4-4-4446-6-66-6---------2-2-22-2------------------------|
B|-(4-4-4446-6-66-6---------2-2-22-2------------------------|
G|--5-5-5557-7-77-7--6-6-6663-3-33-3------------------------|
D|--6-6-6668-8-88-8--6-6-6664-4-44-4------------------------|
A|--6-6-6668-8-88-8--4-4-4444-4-44-4------------------------|
E|--4-4-4446-6-66-6---------2-2-22-2------------------------|
    * *    * *  * *  * *    * *  * *
    Mute immediately after strumming "starred" (*) notes
                     ^     ^
                     |     |
                     ^     ^
                      The 6's and 4's can be replaced with this:
e|----------------------9-----------------------------------|
B|----------------------9-----------------------------------|
G|---------------------10-----------------------------------|
D|---------------------11-----------------------------------|
A|---------------------11-----------------------------------|
E|----------------------9-----------------------------------|


Verse is played throughout song from this point on, even through the Chorus, just listen
the song to see where it stops and starts


Chorus: (I'll be up up and away, up up and away...)

I'm not really sure if this is a guitar but whatever...
e|------------|---------------|
B|------------|---------------|
G|-8-10-10-10-|-------6-5-----|
D|------------|-8--8----------|
A|------------|---------------|
E|------------|---------------|
  Repeat this       On the 6th time, don't play the last "10"
  part 6 times      Just go straight into this


| /  slide up
| \  slide down
| h  hammer-on
| p  pull-off
| ~  vibrato
| +  harmonic
| x  Mute note

↓ Add and view comments below ↓

What do you think about this song and these tabs?

Add your comments, questions, rant or a thumbs up below.

Almost there ...

Sign in to get your own page with links to favourite songs and more. You are just one click away...

Login with Facebook Login with Google