Log in

One click and you are in

Login with Facebook Login with Google

Why sign up and log in

Guitar Tabs Explorer
Kid Cudi bass tabs for Surfin

Bass tabs

Tuning: Standard (E A D G)


There are only 2 riffs to learn here, there is only one change in one pre-chorus where you omit a few notes.
Intro/Verse:

G|--------------------|
D|--------------------|
A|--0--3--2----5--5\--|
E|--------------------| x16

On every fourth repetition the last '5\' is played slightly earlier, on every instance of this riff.


Pre-Chorus:
                                 1st time  2nd time
G|-----------------------------|---------|----------|
D|-----------2------2-3----2-3-|-5--5--5-|-5--5-----|
A|--5----3-5------5------------|---------|-------5--|
E|-----------------------------|---------|----------| x2


Chorus:

G|--------------------|
D|--------------------|
A|--0--3--2----5--5\--|
E|--------------------| x8


Pre-Chorus:
                                 1st time  2nd time
G|-----------------------------|---------|----------|
D|-----------2------2-3----2-3-|-5--5--5-|-5--5-----|
A|--5----3-5------5------------|---------|-------5--|
E|-----------------------------|---------|----------| x2

Chorus:

G|--------------------|
D|--------------------|
A|--0--3--2----5--5\--|
E|--------------------| x8


Pre-Chorus:

G|--------------------------------------|
D|-----------2------2-3----2-3--5--5--5-|
A|--5----3-5------5---------------------|
E|--------------------------------------|

G|---------------------------------------|
D|-----------2--------3----2-3--5--5-----|
A|--5----3-5-----------------------------|
E|---------------------------------------|

                                 1st time  2nd time
G|-----------------------------|---------|----------|
D|-----------2------2-3----2-3-|-5--5--5-|-5--5-----|
A|--5----3-5------5------------|---------|-------5--|
E|-----------------------------|---------|----------| x2


Chorus:

G|--------------------|
D|--------------------|
A|--0--3--2----5--5\--|
E|--------------------| x8


Pre-Chorus:
                                 1st time  2nd time
G|-----------------------------|---------|----------|
D|-----------2------2-3----2-3-|-5--5--5-|-5--5-----|
A|--5----3-5------5------------|---------|-------5--|
E|-----------------------------|---------|----------| x2


Chorus:

G|--------------------|
D|--------------------|
A|--0--3--2----5--5\--|
E|--------------------| x8


Outro:

G|--------------------|
D|--------------------|
A|--0--3--2----5--5\--|
E|--------------------| x8

                                 1st time  2nd time
G|-----------------------------|---------|----------|
D|-----------2------2-3----2-3-|-5--5--5-|-5--5-----|
A|--5----3-5------5------------|---------|-------5--|
E|-----------------------------|---------|----------|

************************************

| /   Slide up
| \   Slide down

************************************

↓ Add and view comments below ↓

What do you think about this song and these tabs?

Add your comments, questions, rant or a thumbs up below.

Almost there ...

Sign in to get your own page with links to favourite songs and more. You are just one click away...

Login with Facebook Login with Google