Log in

One click and you are in

Login with Facebook Login with Google

Why sign up and log in

Guitar Tabs Explorer
Kid Cudi guitar tabs for No one believes me

Guitar tabs

Intro/Violins:
Eb|-------------------------------------------------------------|
Bb|-------------------------------------------------------------|
Gb|-------------------------------------------------------------|
Db|-------------------------------------------------------------|
Ab|----------------2-----------------------2--------------------|
Db|-5--4-5-4------------0---5--4-5-4----------------------------|

Eb|-------------------------------------------------------------|
Bb|-------------------------------------------------------------|
Gb|-------------------------------------------------------------|
Db|-------------------------------------------------------------|
Ab|----------------2----5------------------2--------------------|
Db|-5--4-5-4----------------5--4-5-4----------------------------|
Verse/Guitar Riff:
Eb|-----------------------------------------|
Bb|-----------------------------------------|
Gb|-----------------------------------------|
Db|-----------------------------------------|
Ab|-----------------2--2-2/5-5--5-5\--------|
Db|-5--5-5-4-5-4-5--------------------------|   (x8)
   "Have you ever felt..."


Riff 2:
Eb|--------------------------------------------|
Bb|--------------------------------------------|
Bb|--------------------------------------------|
Db|--------------------------------------------|
Ab|---------------------2--2-2-2-5--5-5\-------|
Db|-5--5-5-5--4--44-4--------------------------|   (x4)

  "I know that something..."

Chorus/Piano:
Eb|--------------------------------------------------------|
Bb|--------------------------------------------------------|
Gb|-16---19-------19-18--16---19------19-18-16-16--19------|
Db|--------------------------------------------------------|
Ab|--------------------------------------------------------|
Db|--------------------------------------------------------|   (x2)


Riff 3:
Eb|----------------------------------------|
Bb|----------------------------------------|
Gb|----------------------------------------|
Db|----------------------------------------|
Ab|---0-1/3-2---------0-1/4-2--------------|
Db|-5----------5---5-----------------------| (x2)


Riff 2:
Eb|--------------------------------------------|
Bb|--------------------------------------------|
Bb|--------------------------------------------|
Db|--------------------------------------------|
Ab|---------------------2--2-2-2-5--5-5\-------|
Db|-5--5-5-5--4--44-4--------------------------|   (x4)

  "I know that something..."


Chorus/Piano:
Eb|--------------------------------------------------------|
Bb|--------------------------------------------------------|
Gb|-16---19-------19-18--16---19------19-18-16-16--19------|
Db|--------------------------------------------------------|
Ab|--------------------------------------------------------|
Db|--------------------------------------------------------|   (x2)

1st Breakdown/Violin:
Eb|----------------------------------------------------------------|
Bb|----------------------------------------------------------------|
Gb|----------------------------------------------------------------|
Db|--9-11-12---12-11-9---12---9-11-12---12-11-9----9-11-12-12-11-9-|
Ab|----------------------------------------------------------------|
Db|----------------------------------------------------------------|

 "No one believes me...."

Eb|------------------------------------------------|
Bb|------------------------------------------------|
Gb|------------------------------------------------|
Db|--9-11-12---12-11-9---12---9-11-12---12-11-9----|
Ab|------------------------------------------------|
Db|------------------------------------------------|

Eb|------------------------------------------------|
Bb|------------------------------------------------|
Gb|------------------------------------------------|
Db|------------14----------------------------------|
Ab|--17-15h17----(14)------------------------------|
Db|------------------------------------------------|

 "Ohhhhh AHHH..."

↓ Add and view comments below ↓

What do you think about this song and these tabs?

Add your comments, questions, rant or a thumbs up below.

Almost there ...

Sign in to get your own page with links to favourite songs and more. You are just one click away...

Login with Facebook Login with Google