Log in

One click and you are in

Login with Facebook Login with Google

Why sign up and log in

Guitar Tabs Explorer
Kid Cudi guitar tabs for Insides out

Guitar tabs

Intro:

e|--0--0--0--0--0--0---0--0--0--0--0--0--------------------------------------|
B|--0--0--0--0--0--0---0--0--0--0--0--0--------------------------------------|
G|--8--8--8--8--8--8---4--4--4--4--4--4--------------------------------------|
D|--9--9--9--9--9--9---5--5--5--5--5--5--------------------------------------|  x4
A|--9--9--9--9--9--9---5--5--5--5--5--5--------------------------------------|
E|--7--7--7--7--7--7---3--3--3--3--3--3--------------------------------------|

e|--0--0--0--0--0--0---0--0--0--0--0--0--------------------------------------|
B|--0--0--0--0--0--0---0--0--0--0--0--0--------------------------------------|
G|--0--0--0--0--0--0---4--4--4--4--4--4--------------------------------------| x3
D|--2--2--2--2--2--2---5--5--5--5--5--5--------------------------------------|
A|--2--2--2--2--2--2---5--5--5--5--5--5--------------------------------------|
E|--0--0--0--0--0--0---3--3--3--3--3--3--------------------------------------|

e|--0--0--0--0--0--0--|-0--0--0--0--0--0--|-0--0--0--0--0--0|
B|--0--0--0--0--0--0--|-0--0--0--0--0--0--|-0--0--0--0--0--0|
G|--4--4--4--4--4--4--|-4--4--4--4--4--4--|-4--4--4--4--4--4|
D|--5--5--5--5--5--5--|-5--5--5--5--5--5--|-5--5--5--5--5--5|
A|--5--5--5--5--5--5--|-5--5--5--5--5--5--|-5--5--5--5--5--5|
E|--3--3--3--3--3--3--|-3--3--3--3--3--3--|-3--3--3--3--3--3|


Chorus:

e|--0--0--0--0--0--0---0--0--0--0--0--0--------------------------------------|
B|--0--0--0--0--0--0---0--0--0--0--0--0--------------------------------------|
G|--8--8--8--8--8--8---4--4--4--4--4--4--------------------------------------|
D|--9--9--9--9--9--9---5--5--5--5--5--5--------------------------------------|  x4
A|--9--9--9--9--9--9---5--5--5--5--5--5--------------------------------------|
E|--7--7--7--7--7--7---3--3--3--3--3--3--------------------------------------|

e|--0--0--0--0--0--0---0--0--0--0--0--0--------------------------------------|
B|--0--0--0--0--0--0---0--0--0--0--0--0--------------------------------------|
G|--0--0--0--0--0--0---4--4--4--4--4--4--------------------------------------| x3
D|--2--2--2--2--2--2---5--5--5--5--5--5--------------------------------------|
A|--2--2--2--2--2--2---5--5--5--5--5--5--------------------------------------|
E|--0--0--0--0--0--0---3--3--3--3--3--3--------------------------------------|

e|--0--0--0--0--0--0--|-0--0--0--0--0--0--|-0--0--0--0--0--0|
B|--0--0--0--0--0--0--|-0--0--0--0--0--0--|-0--0--0--0--0--0|
G|--4--4--4--4--4--4--|-4--4--4--4--4--4--|-4--4--4--4--4--4|
D|--5--5--5--5--5--5--|-5--5--5--5--5--5--|-5--5--5--5--5--5|
A|--5--5--5--5--5--5--|-5--5--5--5--5--5--|-5--5--5--5--5--5|
E|--3--3--3--3--3--3--|-3--3--3--3--3--3--|-3--3--3--3--3--3|


Verse:

e|--0-----0-----0--x--x--x---0--x--x--0-|--x--x--0--x--x--0--x---x--x--x--0--0--0--0|
B|--0-----0-----0--x--x--x---0--x--x--0-|--x--x--0--x--x--0--x---x--x--x--0--0--0--0|
G|--8-----4-----8--x--x--x---4--x--x--8-|--x--x--4--x--x--8--x---x--x--x--4--4--4--4|
D|--9-----5-----9--x--x--x---5--x--x--9-|--x--x--5--x--x--9--x---x--x--x--5--5--5--5|
A|--9-----5-----9--x--x--x---5--x--x--9-|--x--x--5--x--x--9--x---x--x--x--5--5--5--5|
E|--7-----3-----7--x--x--x---3--x--x--7-|--x--x--3--x--x--7--x---x--x--x--3--3--3--3|

Here the strum pattern may vary during the repeats.

e|--0--0--0--0--0--0--0--0---0--0--0--0--0--0--------------------------------|
B|--0--0--0--0--0--0--0--0---0--0--0--0--0--0--------------------------------|
G|--8--8--8--8--8--8--8--8---4--4--4--4--4--4--------------------------------| x3
D|--9--9--9--9--9--9--9--9---5--5--5--5--5--5--------------------------------|
A|--9--9--9--9--9--9--9--9---5--5--5--5--5--5--------------------------------|
E|--7--7--7--7--7--7--7--7---3--3--3--3--3--3--------------------------------|


e|--0--0--0--0--0--0--|-0--0--0--0--0--0--|-0--0--0--0--0--0|
B|--0--0--0--0--0--0--|-0--0--0--0--0--0--|-0--0--0--0--0--0|
G|--4--4--4--4--4--4--|-4--4--4--4--4--4--|-4--4--4--4--4--4|
D|--5--5--5--5--5--5--|-5--5--5--5--5--5--|-5--5--5--5--5--5|
A|--5--5--5--5--5--5--|-5--5--5--5--5--5--|-5--5--5--5--5--5|
E|--3--3--3--3--3--3--|-3--3--3--3--3--3--|-3--3--3--3--3--3|


Outro:


e|--0--0--0--0--0--0---0--0--0--0--0--0--------------------------------------|
B|--0--0--0--0--0--0---0--0--0--0--0--0--------------------------------------|
G|--8--8--8--8--8--8---4--4--4--4--4--4--------------------------------------|
D|--9--9--9--9--9--9---5--5--5--5--5--5--------------------------------------|  x4
A|--9--9--9--9--9--9---5--5--5--5--5--5--------------------------------------|
E|--7--7--7--7--7--7---3--3--3--3--3--3--------------------------------------|

e|--0--0--0--0--0--0---0--0--0--0--0--0--------------------------------------|
B|--0--0--0--0--0--0---0--0--0--0--0--0--------------------------------------|
G|--0--0--0--0--0--0---4--4--4--4--4--4--------------------------------------| x3
D|--2--2--2--2--2--2---5--5--5--5--5--5--------------------------------------|
A|--2--2--2--2--2--2---5--5--5--5--5--5--------------------------------------|
E|--0--0--0--0--0--0---3--3--3--3--3--3--------------------------------------|

e|--0--0--0--0--0--0--|-0--0--0--0--0--0--|-0--0--0--0--0--0|
B|--0--0--0--0--0--0--|-0--0--0--0--0--0--|-0--0--0--0--0--0|
G|--4--4--4--4--4--4--|-4--4--4--4--4--4--|-4--4--4--4--4--4|
D|--5--5--5--5--5--5--|-5--5--5--5--5--5--|-5--5--5--5--5--5|
A|--5--5--5--5--5--5--|-5--5--5--5--5--5--|-5--5--5--5--5--5|
E|--3--3--3--3--3--3--|-3--3--3--3--3--3--|-3--3--3--3--3--3|


e|--0--0--0--0--0--0---0--0--0--0--0--0--------------------------------------|
B|--0--0--0--0--0--0---0--0--0--0--0--0--------------------------------------|
G|--8--8--8--8--8--8---4--4--4--4--4--4--------------------------------------|
D|--9--9--9--9--9--9---5--5--5--5--5--5--------------------------------------|  x4
A|--9--9--9--9--9--9---5--5--5--5--5--5--------------------------------------|
E|--7--7--7--7--7--7---3--3--3--3--3--3--------------------------------------|

e|--0--0--0--0--0--0---0--0--0--0--0--0--------------------------------------|
B|--0--0--0--0--0--0---0--0--0--0--0--0--------------------------------------|
G|--0--0--0--0--0--0---4--4--4--4--4--4--------------------------------------| x3
D|--2--2--2--2--2--2---5--5--5--5--5--5--------------------------------------|
A|--2--2--2--2--2--2---5--5--5--5--5--5--------------------------------------|
E|--0--0--0--0--0--0---3--3--3--3--3--3--------------------------------------|

e|--0--0--0--0--0--0--|-0--0--0--0--0--0--|-0--0--0--0--0--0--0-|
B|--0--0--0--0--0--0--|-0--0--0--0--0--0--|-0--0--0--0--0--0--0-|
G|--4--4--4--4--4--4--|-4--4--4--4--4--4--|-4--4--4--4--4--4--8-|
D|--5--5--5--5--5--5--|-5--5--5--5--5--5--|-5--5--5--5--5--5--9-|
A|--5--5--5--5--5--5--|-5--5--5--5--5--5--|-5--5--5--5--5--5--9-|
E|--3--3--3--3--3--3--|-3--3--3--3--3--3--|-3--3--3--3--3--3--7-|


************************************
| x   Dead note

↓ Add and view comments below ↓

What do you think about this song and these tabs?

Add your comments, questions, rant or a thumbs up below.

Almost there ...

Sign in to get your own page with links to favourite songs and more. You are just one click away...

Login with Facebook Login with Google