Log in

One click and you are in

Login with Facebook Login with Google

Why sign up and log in

Guitar Tabs Explorer
Kid Cudi guitar tabs for Edge of the earth

Guitar tabs

-------------------------------------------------------------------------------
            Edge of the Earth \ Post Mortem Boredom - Kid Cudi
-------------------------------------------------------------------------------


Tuning: Standard (EADGBE)
e|---------------------------------------------------------------------------|
B|-----------------------------1---------------------------------------------|
G|-------------------4-------------------0-----------------------------------|
D|---------2----2---------3--------------------------------------------------|
A|----0-----------------------------3----------------------------------------|
E|---------------------------------------------------------------------------|

This is the first half (Edge of the Earth).


------G------------------------D------C------B------------------Am------------

e|----3------------------------5\3----3\2----2------------------0------------|
B|----3--------------0---------7\5----5\3----3----4h5----4h5----1------------|
G|----0------------------------7\5----5\4----4------------------2------------|
D|----0---------0---------0----7\5----5\4----4------------------2------------|
A|----2----2-------------------5\3----3\2----2----2-------------0------------|
E|----3------------------------5\3----3\2----2------------------0------------|

This is the second half (Post Mortem Boredom). Easy version - just play the chords above tab.


************************************

| /   slide up
| \   slide down
| h   hammer-on
| p   pull-off
| ~   vibrato
| +   harmonic
| x   Mute note
| b   Bend
| pb  Pre-bend
| br  Bend release
| pbr Pre-bend release
| brb Bend release bend

************************************

↓ Add and view comments below ↓

What do you think about this song and these tabs?

Add your comments, questions, rant or a thumbs up below.

Almost there ...

Sign in to get your own page with links to favourite songs and more. You are just one click away...

Login with Facebook Login with Google