Log in

One click and you are in

Login with Facebook Login with Google

Why sign up and log in

Guitar Tabs Explorer
Kid Cudi guitar tabs for Dat new new

Guitar tabs

-------------------------------------------------------------------------------
			     Dat New New - Kid Cudi
-------------------------------------------------------------------------------
Tabbed by:xx_mclovin_xx
Tuning: standard

e|---------------------------------|
b|---------------------------------|
g|---------------------6-------6---|
d|-----6-------6---4-7---7-4-7---7-|
a|-4-7---7-4-7---7-----------------|
e|---------------------------------|

e|---------------------------------|
b|---------------------------------|
g|-----4-------4-------2-------2---|
d|-2-6---6-2-6---6-1-4---4-1-4---4-|
a|---------------------------------|
e|---------------------------------|


| /  slide up
| \  slide down
| h  hammer-on
| p  pull-off
| ~  vibrato
| +  harmonic
| x  Mute note

Other versions of Dat New New

Dat new newChords

↓ Add and view comments below ↓

What do you think about this song and these tabs?

Add your comments, questions, rant or a thumbs up below.

Almost there ...

Sign in to get your own page with links to favourite songs and more. You are just one click away...

Login with Facebook Login with Google