Log in

One click and you are in

Login with Facebook Login with Google

Why sign up and log in

Guitar Tabs Explorer
Kicksie guitar tabs for Single method

Guitar tabs

Tuning: Standard (E A D G B E)

Difficulty: Novice

KICKSIE - SINGLE METHOD
OFFICIAL TAB
LEAD GUITAR

STANDARD TUNING

4/4 130 BPM

-
Verse:
e|----------------------------------------|----------------------------------------|
B|--3--3--3--3--3-------------------------|-0--0--0--0--0--3--0--------------------|
G|-----------------2--0--0--0--0--0--0--0-|----------------------2--0--0--0--0--0--|
D|----------------------------------------|----------------------------------------|
A|----------------------------------------|----------------------------------------|
E|----------------------------------------|----------------------------------------|

e|----------------------------------------|----------------------------------------|
B|--3--3--3--3--3--3----------------------|-0--0--0--0--0--3--0--------------------|
G|--------------------0--0--0--0--0--0--0-|----------------------2--0--0--0--0--0--|
D|----------------------------------------|----------------------------------------|
A|----------------------------------------|----------------------------------------|
E|----------------------------------------|----------------------------------------|



Chorus:
e|--------------------------------------------------|
B|--0--0--0--0--0--3--0--------0--0--0--0--0--3-----|
G|-----------------------2--0--------------------0--|
D|--------------------------------------------------|
A|--------------------------------------------------|
E|--------------------------------------------------|



Instrumental:
e|----------------------------------------|----------------------------------------|
B|--3--3--3--3--3-------------------------|-0--0--0--0--0--3--0--------------------|
G|-----------------2--0--0--0--0--0--0--0-|----------------------2--0--0--0--0--0--|
D|----------------------------------------|----------------------------------------|
A|----------------------------------------|----------------------------------------|
E|----------------------------------------|----------------------------------------|

e|----------------------------------------|----------------------------------------|
B|--3--3--3--3--3--3----------------------|-0--0--0--0--0--3--0--------------------|
G|--------------------0--0--0--0--0--0--0-|----------------------2--0--0--0--0--0--|
D|----------------------------------------|----------------------------------------|
A|----------------------------------------|----------------------------------------|
E|----------------------------------------|----------------------------------------|



Verse:
e|----------------------------------------|----------------------------------------|
B|--3--3--3--3--3-------------------------|-0--0--0--0--0--3--0--------------------|
G|-----------------2--0--0--0--0--0--0--0-|----------------------2--0--0--0--0--0--|
D|----------------------------------------|----------------------------------------|
A|----------------------------------------|----------------------------------------|
E|----------------------------------------|----------------------------------------|

e|----------------------------------------|----------------------------------------|
B|--3--3--3--3--3--3----------------------|-0--0--0--0--0--3--0--------------------|
G|--------------------0--0--0--0--0--0--0-|----------------------2--0--0--0--0--0--|
D|----------------------------------------|----------------------------------------|
A|----------------------------------------|----------------------------------------|
E|----------------------------------------|----------------------------------------|



Chorus:
e|--------------------------------------------------|
B|--0--0--0--0--0--3--0--------0--0--0--0--0--3-----|
G|-----------------------2--0--------------------0--|
D|--------------------------------------------------|
A|--------------------------------------------------|
E|--------------------------------------------------|



Bridge:
e|-------------------------10------------------------|
B|--12/15--17--15--12--10--10--12--10----------------|
G|-------------------------------------12--9------9--|
D|--------------------------------------------12-----|
A|---------------------------------------------------|
E|---------------------------------------------------|

e|--------------------------------------|-----------------------12--10--12/14--|
B|-----------------------12--10--12--10-|---------------12--10-----------------|
G|--12--9--12--9--12--9-----------------|-12--9--12--9-------------------------|
D|--------------------------------------|--------------------------------------|
A|--------------------------------------|--------------------------------------|
E|--------------------------------------|--------------------------------------|

e|--15--15--15--14--15--15--15--14--12-|-----------------------------------------|
B|-------------------------------------|-15--12----------------------------------|
G|-------------------------------------|---------14--12------12------------------|
D|-------------------------------------|-----------------14------14--12------12--|
A|-------------------------------------|---------------------------------14------|
E|-------------------------------------|-----------------------------------------|



Chorus:
e|--------------------------------------------------|
B|--0--0--0--0--0--3--0--------0--0--0--0--0--3-----|
G|-----------------------2--0--------------------0--|
D|--------------------------------------------------|
A|--------------------------------------------------|
E|--------------------------------------------------|


************************************

| /  Slide up

************************************

Other versions of Single Method

Single methodChords

↓ Add and view comments below ↓

What do you think about this song and these tabs?

Add your comments, questions, rant or a thumbs up below.

Almost there ...

Sign in to get your own page with links to favourite songs and more. You are just one click away...

Login with Facebook Login with Google