Log in

One click and you are in

Login with Facebook Login with Google

Why sign up and log in

Guitar Tabs Explorer
Khruangbin bass tabs for Christmas time is here

Christmas Time Is Here bass tab by Khruangbin

Khruangbin bass tabs for Christmas time is here

Bass tabs

Tuning: Standard (E A D G)


Intro:

G|--------5~-------------5~|
D|-------------------------| x2
A|-3~-------------3~-------|
E|-------------------------|

Verse:

G|-----------------------------------------------------------|
D|-3~-----1~-----3~-----1~-----------------------------------| x2
A|-----------------------------2~----1~----------------3~----|
E|---------------------------------------5~----4~--3~-----1~-|


Chorus:

G|-------------------------------------------------------------5~-----|
D|-------4~----------4~--------------------------------------------4~-|
A|-4~----------4~----------------6~--5~-------------4~--3~------------|
E|-------------------------5~--------------4~--3~---------------------|


Verse:

G|-----------------------------------------------------------|
D|-3~-----1~-----3~-----1~-----------------------------------| x2
A|-----------------------------2~----1~----------------3~----|
E|---------------------------------------5~----4~--3~-----1~-|


Chorus:

G|-------------------------------------------------------------5~-----|
D|-------4~----------4~--------------------------------------------4~-|
A|-4~----------4~----------------6~--5~-------------4~--3~------------|
E|-------------------------5~--------------4~--3~---------------------|


Bridge:

G|-----------------------------------------------------------|
D|-3~-----1~-----3~-----1~-----------------------------------|
A|-----------------------------2~----1~----------------3~----|
E|---------------------------------------5~----4~--3~-----1~-|


Outro:

G|--------------------------------|
D|--------------------------------| x2
A|--2~----1~----------------3~----|
E|------------5~----4~--3~-----1~-|


************************************


| ~  Let it ring


Merry Xmas!! (I know we are in November still but there's nothing wrong with a little early celebration)

************************************

Almost there ...

Sign in to get your own page with links to favourite songs and more. You are just one click away...

Login with Facebook Login with Google