Log in

One click and you are in

Login with Facebook Login with Google

Why sign up and log in

Guitar Tabs Explorer
Chaka Khan bass tabs for Aint nobody

Bass tabs

Chaka Khan: Aint Nobody         5 String Eb Tuning Fuzz Effect
Synth Intro

Intro
|---------------------------------------------------|
|---------------------------------------------------|
|---7---7---------------------7---------------------|3x
|-0---0---------------------0---0-------------------|
|---------------------------------------------------|

|-------------------------|
|-------------------------|
|---7---7-----------------|
|-0---0-------------------|
|-------------------------|

Main Part
|-------------------------|
|-------------------------|
|---7---7-----------------|4x
|-0---0----------7--7--7--|
|-------------------------|


Verse:2x
|-------------------------|
|-------------------------|
|---7---7--------7--7-5---|2x
|-0---0-----------------7-|
|-------------------------|

|---5---5--------4--4-2---|
|-----------------------5-|
|-3---3-------------------|2x
|-------------------------|
|-------------------------|

Pre-Chorus 1
|---4---4------------------4---4-|
|--------------------------------|
|-2---2----------------------2---|
|--------------------------------|
|--------------------------------|

|---5---5------------------------|
|--------------------------------|
|-3---3------------5---5---6---6-|
|--------------------------------|
|----------------3---3---4---4---|

|-------------------------|
|-------------------------|
|---7---7--------7--7-5---|2x
|-0---0-----------------7-|
|-------------------------|

Repeat: Verse


Pre-Chorus 2
|---4---4---------------4--4---4-|
|--------------------------------|
|-2---2----------------------2---|
|--------------------------------|
|--------------------------------|

|---5---5------------------------|
|--------------------------------|
|-3---3------------5---5---6---6-|
|--------------------------------|
|----------------3---3---4---4---|

|-------------------------|
|-------------------------|
|---7---7--------7--7-5---|
|-0---0-----------------7-|
|-------------------------|

|-------------------------|
|-------------------------|
|---7---7-------------5-7-|
|-0---0-------------7-----|
|-------------------------|


Chorus
|------------------------------------------------5-|
|------------------------5---7---7-----------------|
|---7---7------------------0---0-------3---3---3---|3x
|-0---0--------3---3---3---------------------------|
|--------------------------------------------------|

Repeat: Main Part


Verse 2:
|-------------------------|
|-------------------------|
|---7---7--------7--7-5---|2x
|-0---0-----------------7-|
|-------------------------|

|---5---5--------4--4-2---|
|-----------------------5-|
|-3---3-------------------|
|-------------------------|
|-------------------------|

|---5---5----------2h4p2--|
|-------------------------|
|-3---3-------------------|
|-------------------------|
|-------------------------|

|-------------------------|
|-------------------------|
|---7---7--------7--7-5---|2x
|-0---0-----------------7-|
|-------------------------|

|---5---5--------4--4-2---|
|-----------------------5-|
|-3---3-------------------|2x
|-------------------------|
|-------------------------|


Pre-Chorus 3
|---4---4---------------4--4---4-|
|--------------------------------|
|-2---2----------------------2---|
|--------------------------------|
|--------------------------------|

|---5---5----------7---7---------|
|--------------------------------|
|-3---3----------5---5-----6---6-|
|--------------------------------|
|------------------------4---4---|

|-------------------------|
|-------------------------|
|---7---7--------7--7-5---|
|-0---0-----------------7-|
|-------------------------|

|-------------------------|
|-------------------------|
|---7---7-------------5-7-|
|-0---0-------------7-----|
|-------------------------|

Repeat: Chorus 4x


Bridge
|---------------------------------------------|
|---------------------------------------------|
|-7-------5---7--7-5--------5h7--5------5-----|
|--------------------7-5------------------7-5-|
|---------------------------------------------|

|---------------------------------------------|
|---------------------------------------------|
|-7-------7---7--7-5--------5h7--5--5---5-----|2x
|--------------------7-5------------------7-5-|
|---------------------------------------------|

|---------------------------------------------|
|---------------------------------------------|
|-7--------5--7--7-5--------5h7--5---/12b\----|
|-------7------------7-5----------------------|
|---------------------------------------------|

|---------------------------------------------|
|---------------------------------------------|
|-7-----5-7-7-7--7-5--------5h7--5-5-5--5-----|
|-----7--------------7-5------------------7-5-|
|---------------------------------------------|

|---------------9--9-7------------------------|
|---------------------------------------------|
|-7-------7\----------------5h7--5-5-5--5-----|
|----------------------5------------------7-5-|
|---------------------------------------------|

|---------------------------------------------|
|---------------------------------------------|
|-7-7-----7---7--7-5--------5h7--5--5---5-----|
|--------------------7-5------------------7-5-|
|---------------------------------------------|

|---------------------------------------------|
|---------------------------------------------|
|-7-------7---7--7-5------------5-------5---7-|
|--------------------7-5------------7---------|
|---------------------------------------------|

Final Chorus
|------------------------------------------------5-|
|------------------------5---7---7-----------------|
|---7---7------------------0---0-------3---3---3---|2x
|-0---0--------3---3---3---------------------------|
|--------------------------------------------------|

|-----------------------------------------4--4-2---|
|------------------------5---7---7---------------5-|
|---7---7------------------0---0-------3-----------|5x
|-0---0--------3---3---3---------------------------|
|--------------------------------------------------|

|--------------------------------------5---5-4-4p2-|
|------------------------5---7---7-----------------|
|---7---7------------------0---0-----3---3---------|
|-0---0--------3---3---3---------------------------|
|--------------------------------------------------|

|-----------------------------------------4--4-2---|
|------------------------5---7---7---------------5-|
|---7---7------------------0---0-------3-----------|4x
|-0---0--------3---3---3---------------------------|
|--------------------------------------------------|

|------------------------------------------------5-|
|------------------------5---7---7-----------------|
|---7---7------------------0---0-------3---3---3---|
|-0---0--------3---3---3---------------------------|
|--------------------------------------------------|

|----------------------------------------5---------|
|------------------------5---7---7---------0~--1~--|
|---7---7------------------0---0-------3-----------|
|-0---0--------3---3---3---------------------------|
|--------------------------------------------------|

|----------------------------------------------4\--|
|------------------------5---7---7-----------------|
|---7---7------------------0---0-------3-----------|
|-0---0--------3---3---3---------------------------|
|--------------------------------------------------|

|-----------------------------------------4--4-2---|
|------------------------5---7---7---------------5-|
|---7---7------------------0---0-------3-----------|4x
|-0---0--------3---3---3---------------------------|
|--------------------------------------------------|

Almost there ...

Sign in to get your own page with links to favourite songs and more. You are just one click away...

Login with Facebook Login with Google