Log in

One click and you are in

Login with Facebook Login with Google

Why sign up and log in

Guitar Tabs Explorer
Wiz Khalifa guitar tabs for See you again intro

Guitar tabs

I did't think the other tabs of this song had so good intros,
so I decided I'd make one. (No offense to those people that made the other tabs)
It's not difficult and I think it's pretty accurate.

Plesae let me know what you think about this tab by leaving a comment and rating! Thanks!

ENJOY! :D
 Tuning - standard

 Capo - 3th fret


E|------------------------------------------------------|
B|------------------0-------------------------0---------|
G|-----2p0-----0h2-----2p0h2-----2p0-----0h2-----2p0h2--|
D|--0-------0-----------------0-------0-----------------|
A|----------------------------3-------2-----------------|
E|--0-------3-------------------------------------------|


E|---------------------------------------|
B|------------------0--------------------|
G|-----2p0-----0h2-----2p0h2-----2p0-----|
D|--0-------0-----------------0-------0--|
A|----------------------------3-------2--|
E|--0-------3----------------------------|

E|-----------0h2p0-----0---------------------|
B|-----0--3--0------3-------------------0----|
G|--0--------0------0-----0--0h2--2--0--0h2--|
D|------------------0--------2----------0----|
A|---------------------------3---------------|
E|-----------0------3-------------------3----|

E|-------0--0h2p0----------------------------------|
B|--0h3--0---------3--0--------------------0-------|
G|-------0---------0-----2--0h2p0--0h2--2-----0----|
D|-----------------0---------------2----------0h2--|
A|---------------------------------3---------------|
E|-------0---------3--------------------------3----|


E|----------0h2p0-----0---------------------|
B|--0--0h3--0------3-------------------0----|
G|----------0------0-----0--0h2--2--0--0h2--|
D|-----0-----------0--------2----------0----|
A|--------------------------3---------------|
E|----------0------3-------------------3----|


E|-------0--0h3/5--5h7--5\3--0--3h5--5p3--3p0--0h3--3h5--5p3--3--|
B|--0h3--0---------0----------------------0-------------------0--|
G|-------0---------0------------0---------0---------0---------0--|
D|--0------------------------------------------------------------|
A|------------------------------3-------------------3------------|

Other versions of See You Again Intro

See you againChords
See you again (Ver. 2)Chords
See you again ukuleleChords
See you againTabs
See you againTabs
See you again ( fingerstyle)Tabs

↓ Add and view comments below ↓

What do you think about this song and these tabs?

Add your comments, questions, rant or a thumbs up below.

Almost there ...

Sign in to get your own page with links to favourite songs and more. You are just one click away...

Login with Facebook Login with Google